Guitaretab - guitar tabs
Song name
# A B C D E F G H I J K L M N O P Q R S T U V W X Y Z

Caliban - Stigmata tab

1ra||-----------------------------------------------||x2
2da||-----------------------------------------------||
3ra||-9~~-9-7-10-10-9~~-9-7-10-10-------------------||
4ta||-7~~-7-5-8--8--7~~-7-5-8--8--10----------------||
5ta||-----------------------------8--8-7-5---10-8-7-||
6ta||--------------------------------------8--------||

||-------------------------------------------------------------------------||
||-------------------------------------------------------------------------||
||-------------------------------------------------------------------------||
||--------------------------8-7-5-10-8----------------------------8-----8--||
||-0-0-5-7-10-8-7-8-5-0-0-5------------10-0-0-5-7-10-8-7-8-10---5---8-5---8||
||-0-0----------------0-0----------------0-0-----------------0-------0-----||

||-----------------------------------------------||x2
||-----------------------------------------------||
||-9~~-9-7-10-10-9~~-9-7-10-10-------------------||
||-7~~-7-5-8--8--7~~-7-5-8--8--10----------------||
||-----------------------------8--8-7-5---10-8-7-||
||--------------------------------------8--------||

||-------------------------------------------------------------------------||
||-------------------------------------------------------------------------||
||-------------------------------------------------------------------------||
||--------------------------8-7-5-10-8----------------------------8-----8--||
||-0-0-5-7-10-8-7-8-5-0-0-5------------10-0-0-5-7-10-8-7-8-10---5---8-5---8||
||-0-0----------------0-0-----------------0-0-----------------0------0-----||
[ Tab from: http://www.guitaretab.com/c/caliban/163555.html ]
				[[[ sige apaņando al aire mientras la 
				   otra guitarra hace otras notas
	
||-------------------------||	||--------------------------------||x2
||----------10-10----------||	||--------------------------10-10-||
||----------13-13----------||	||--------------------------13-13-||
||-------------------------||	||-0-0-0-3-3-3-1-1-1-0-0-0--------||
||-0-0-0-0--------0-0-0-0--||	||-0-0-0-3-3-3-1-1-1-0-0-0--------||
||-0-0-0-0--------0-0-0-0--||	||-0-0-0-3-3-3-1-1-1-0-0-0--------||

			       en la 2da vez no hagas las 2 ultimas notas ]]]


||------------------||x4
||------------------||
||-----9-9-7-7------||
||-----7-7-5-5------||
||-0-0---------0-0-0||
||-0-0---------0-0-0||(la otra tarra hace 3 notas asi k no te confundas si
			es que te suena diferente )


( aki 1 corte k grita solo el ql )

||-----------------------------------------------||x2
||-----------------------------------------------||
||-9~~-9-7-10-10-9~~-9-7-10-10-------------------||
||-7~~-7-5-8--8--7~~-7-5-8--8--10----------------||
||-----------------------------8--8-7-5---10-8-7-||
||--------------------------------------8--------||

||-------------------------------------------------------------------------||
||-------------------------------------------------------------------------||
||-------------------------------------------------------------------------||
||--------------------------8-7-5-10-8----------------------------8-----8--||
||-0-0-5-7-10-8-7-8-5-0-0-5------------10-0-0-5-7-10-8-7-8-10---5---8-5---8||
||-0-0----------------0-0-----------------0-0-----------------0------0-----||

||--------------------------------||x2
||--------------------------10-10-||
||--------------------------13-13-||
||-0-0-0-3-3-3-1-1-1-0-0-0--------||
||-0-0-0-3-3-3-1-1-1-0-0-0--------||
||-0-0-0-3-3-3-1-1-1-0-0-0--------||
Related for Stigmata tab