Guitaretab - guitar tabs
Song name
# A B C D E F G H I J K L M N O P Q R S T U V W X Y Z

Camel - Hymn To Her tab

Camel - (1979) I Can See Your House From here - 06 - Hymn To Her

/ = slide
b = bend
h = hammer on
p = pull off
~ - vibrato


Intro:

(00:00)

e|--------------------------------------------------------------|
B|---------------------------------------11-10---------------10-|
G|--------------------------------12-10--------12-10-11--12-----|
D|--------------------------------------------------------------|
A|-13---12-10---12---------10-----------------------------------|
E|-----------------10--13---------------------------------------|

(00:08)

e|--------------------------------------------------------------------|
B|---------------------------------------11-10---------------10-13~---|
G|-15---14-12---14---------12b-------10--------12-10-11--12-----------|
D|-----------------12--15---------------------------------------------|
A|--------------------------------------------------------------------|
E|--------------------------------------------------------------------|
[ Tab from: http://www.guitaretab.com/c/camel/154735.html ]
(00:16)
e|------------10------------------------------------------------------|
B|-13-10-12------13--------------10h11p10------11--13h14p13------15~--|
G|-------------------12-12----12----------10----------------13--------|
D|--------------------------------------------------------------------|
A|--------------------------------------------------------------------|
E|--------------------------------------------------------------------|

(00:32)

e|--------------------------------------------------------------|
B|---------------------------------------11-10---------------10-|
G|--------------------------------12-10--------12-10-11--12-----|
D|--------------------------------------------------------------|
A|-13---12-10---12---------10-----------------------------------|
E|-----------------10--13---------------------------------------|

(00:40)

e|--------------------------------------------------------------------|
B|---------------------------------------11-10---------------10-------|
G|-15---14-12---14---------12b-------10--------12-10-11--12-----12~---|
D|-----------------12--15---------------------------------------------|
A|--------------------------------------------------------------------|
E|--------------------------------------------------------------------|

(00:50)

"Look to the mirror
I can tell no lies"
EtÁ...
Related for Hymn To Her tab