Song name
# A B C D E F G H I J K L M N O P Q R S T U V W X Y Z

Camel - Under The Moon tab

                                          Artist - Camel
                                         ****************
                                      Song - Under The Moon
                                     ***********************
                                     Album - Harbour Of Tears
                                    **************************


Organ Chords
*************
Bm                                                  A                   D
[---------s------------------|--------s------------p------h---------p------]
[-------14\15--15--15-14-12--|------14\15-15--14-14-12--12-14--12-12-10----]
[--11------------------------|--11--------------------------------------11-]
[----------------------------|---------------------------------------------]
[----------------------------|---------------------------------------------]
[----------------------------|---------------------------------------------]


   G                   A         G      Bm
[-------------------------------------------]
[-----------p----------------b--------------]
[--11--12-12-11-------------14---14-12--11--]
[---------------14-14-----------------------]
[------------------------12-----------------]
[-------------------------------------------]


                                               A               D
[------bhold--br-----------b--|---------b-r------h---------p-------]
[-----14-14--14--12-12-12-14--|--------14---12-12-14--12-12-10-----]
[--11-------------------------|--11-11-------------------------11--]
[-----------------------------|------------------------------------]
[-----------------------------|------------------------------------]
[-----------------------------|------------------------------------]

    G             Em      A        G      Bm   D G
 Rake
[---------------------------------------------|--------------------]
[-------------p----------------b--------------|----h--p----b-------]
[----11--12-12-11-------------14---14-12--11--|--11-12-11--9--7-9--]
[--X--------------14-14-----------------------|--------------------]
[-------------------------12------------------|--------------------]
[---------------------------------------------|--------------------]


        A          Em     Bm           D    G  A   D   G
[---b-------------------------------|------------------------]
[--15--15-14-12-12--b-12---b-15--b--|--b--r--------b--r------]
[------------------14-----14----14--|--9----7--6---6-----s---]
[-----------------------------------|-------------------7\9--]
[-----------------------------------|------------------------]
[-----------------------------------|------------------------]
Tap to rate this tab
# A B C D E F G H I J K L M N O P Q R S T U V W X Y Z