Song name
# A B C D E F G H I J K L M N O P Q R S T U V W X Y Z

Camila - De Que Me Sirve La Vida tab

Intro
-------2--0h2-5----------5h7-5-3-----3--3h5-3-2-----0-5-|
-----3----------------7------------3---------------3----|
---2----------------6------------4----------------2-----|
-0----------------7---------------------------0--0------| x2
----------------5---------------------------------------|
-------------------------------3------------------------|

D                               F#m/D
Estoy a punto de emprender un viaje
G                           D
con rumbo hacia lo desconocido
                             F#m/D
no se si algún día vuelva a verte
G                                D
no es fácil aceptar haber perdido.


Bm                                F#m
Por mas que suplique no me abandones
G                            D
dijiste no soy yo es el destino
Em                                 F#m
Entonces entendí que aunque te amaba
G                           D
tenia que elegir otro camino.

                      A
De que me sirve la vida
                   D
si eres lo que yo pido,
                      Em                         A
los recuerdos no me alcanzan pero me mantienen vivo

                      G
De que me sirve la vida
                 D
si no la vivo contigo
                       Em                            A
de que me sirve la esperanza si es lo ultimo que muere

y sin ti ya la he perdido.

  G          Em
e------------------0-------|
B---3---3------3-----3---3-|
G--0---0---0--0--0---------|
D-4---4---4--4---------4---|
A--------------------------|
E--------------------------|

D                            F#m/D
Escucha bien amor lo que te digo
G                             D
pues creo no habrá otra ocasión
                             F#m/D
para decirte que no me arrepiento
G                              D
de haberte entregado el corazón.

Bm                                F#m
Por mas que suplique no me abandones
G                            D
dijiste no soy yo es el destino
Em                                 F#m
Entonces entendí que aunque te amaba
G                           D
tenia que elegir otro camino.

                      A
De que me sirve la vida
                   D
si eres lo que yo pido,
                      Em                         A
los recuerdos no me alcanzan pero me mantienen vivo

                      G
De que me sirve la vida
                 D
si no la vivo contigo
                       Em                            A
de que me sirve la esperanza si es lo ultimo que muere
                        G     Em     C   A
y sin ti ya la he perdidoooooooooooooooooo.

   Em      F#m        G
De que me sirve la vida
                   D
si eres lo que yo pido,
                      Em                         A
los recuerdos no me alcanzan pero me mantienen vivo

                 G    D
De que me sirve la vidaaaaa
                        Em                          A
de que me sirve la esperanza si es lo ultimo que muere

y sin ti ya la he perdido.
  G          Em                D
e------------------0-------|
B---3---3------3-----3---3-|
G--0---0---0--0--0---------|
D-4---4---4--4---------4---|
A--------------------------|
E--------------------------|


F#m/D: xx0222
Tap to rate this tab
 
# A B C D E F G H I J K L M N O P Q R S T U V W X Y Z