Cancer - Back From The Dead tab

Band/Artist:Cancer
Year Formed:1988
Song:Back From The Dead
Genre:Death/Thrash Metal
Album:Death Shall Rise

I learned this song by ear and I tabbed it out for you guys. It may not be 
perfect, but its pretty close.

Tuning: D Standard


Key:
h:Hammer Ons
p:Pull-offs
":vibrato


Intro(0:00)
GR1
|-------------------------|
|-------------------------|
|---------8-8h9p8---------|  
|---10-9~---------10-9----|
|7---------------------8-7|  
|0------------------------|
GR2
|-------------------------|
|-------------------------|
|-------------------------|
|-------------------------|
|2~~-------------------3-2|
|0~~-------------------1-0| 

Riff 1(0:15)
GR1&GR2
|---------------------|
|---------------------|
|---------------------|
|---------------------|
|2--10-9--7h8p8----3-2|
|0--8--7-------7-8-1-0|

Riff 2(0:29)
GR1&GR2
|-------------------------------------------------|
|-------------------------------------------------|
|-----------------------------------------------2"|  
|------------------------5-----5------------2-3---|
|4-----4-----3-----3-----3-333-3-333--2-3-4-------|
|2-222-2-222-1-111-1-111--------------------------|
   ...   ...   ...   ...   ...   ...  . . . . . 

Riff 1(0:50)

Riff 3(1:03)
GR1&GR2
|-----------------------|-------------------------|
|-----------------------|-------------------------|
|-----------------------|-------------------------|
|4~~-5~~-4~~-2----------|4~~-5~~-4~----2----------|
|4~~-3~~-4~~-2-----6h7p6|4~~-3~~-4~-3^-2-----6h7p6|
|2~~-3~~-2~~-0--6-7-----|2~~-3~~-2~----0--6-7-----|
                . .                       . .
Riff 2(1:31)

Riff 3(1:52)

Riff 4(2:20)
GR1&GR2
|-------------------------------|-------------------------------------------
|-------------------------------|-------------------------------------------
|-------------------------------|-------------------------------------------
|2-2-2-2-2-2-2-2-3-3-3-3-5-5-5-5|2-2-2-2-2-2-2-2-----7h8p7h8p7-----9h10p9h10
|2-2-2-2-2-2-2-2-3-3-3-3-3-3-3-3|2-2-2-2-2-2-2-2-7-8----------9-10--------  
|0-0-0-0-0-0-0-0-1-1-1-1-3-3-3-3|0-0-0-0-0-0-0-0----------------------------
 . . . . . . . . . . . . . . . . . . . . . . . . . .          . .
 
Riff 5(2:48)     
GR1
|-----------------------------|
|-----------------------------|
|-----4-5-7------5------------|
|4~-5------5-4~----2--2-4-5-4-|
|-----------------------------|
|-----------------------------|
GR2

(Riff 3)

Riff 6(3:01)
GR1&GR2
|-------------------------------------------------------------------------|
|----------------------------12-11----------------------------------------|
|11-10------11-10------11-10-------11-10-------11-10-------11-10-------11-|
|------12-11-----12-11------------------12-11-------12-11-------12-11-9--7| 
|-------------------------------------------------------------------------|
|-------------------------------------------------------------------------|

Solo(3:15)I don`t feel like tabbing it :P

Solo Rhythm: Riff 2

Riff 1(3:36)

Riff 3(3:51)

Riff 2(4:19)

Outro(4:40)(same thing as Intro)
Tap to rate this tab
 
# A B C D E F G H I J K L M N O P Q R S T U V W X Y Z