Song name
# A B C D E F G H I J K L M N O P Q R S T U V W X Y Z

Cancerslug - Gone tab

riff 1:
|-----------------------------------------------------------------|
|-----------------------------------------------------------------|
|-----------------------------------------------------------------|
|-----------------------------------------------------------------|
|-------------------------------------------------3-3-3-3-3-3-3-3-|
|-5-5-5-5-5-5-5-5-4-4-4-4-4-4-4-4-1-1-1-1-1-1-1-1-----------------|

riff 2:
|-------------------------------------|------------------------------------|
|-------------------------------------|------------------------------------|
|-------------------------------------|------------------------------------|
|-3-3-3-35-55-5-5---------------------|------------------------------------|
|-------------------------------------|-8-8-8-87-77-7-7--------------------|
|-----------------8-8-7-7-5-55-8-5-85-|-----------------8--8-8-8-8-8-8-8-8-|
Tap to rate this tab
# A B C D E F G H I J K L M N O P Q R S T U V W X Y Z