Song name
# A B C D E F G H I J K L M N O P Q R S T U V W X Y Z

Cannibal Corpse - Smoke On The Water tab

Help us improve GuitareTab! Take a short survey!
Title: Smoke on the water


There are 2 versions of the song.  Here is the old.

e|----------------------------------------|
B|----------------------------------------|
G|------3--5------3--5-6-5------3--5--3---|
D|---5--3--5---5--3--5-6-5---5--3--5--3--5|
A|---5---------5-------------5-----------5|
E|----------------------------------------|

Now here is my version

e|---------------------------------------|
B|---------------------------------------|
G|---------------------------------------|
D|---------------------------------------|
A|--2--5--7--2--5--7-8-7----2--5--7--5--2|
E|--0--3--5--0--3--5-6-5----0--3--5--3--0|
Related for Smoke On The Water tab