Song name
# A B C D E F G H I J K L M N O P Q R S T U V W X Y Z

Cannibal Corpse - Frantic Disembowelment tab

Help us improve GuitareTab! Take a short survey!
tuning:
A# D# G# C# F# A# D#
(7 STRING)

GUITAR 1 INTRO RIFF   x3
|---------------------0|
|----------------------|
|---------------556----|
|-------------4----5---|
|----------------------|
|-3h6p3-2h5p2---------0|

GUITAR 2 INTRO RIFF   x3
|---------------------0|
|----------------------|
|----------------------|
|----------------------|
|-5-5-5-4--------------|
|-3-3-3-2-------------0|

GUITARS 1 & 2 RIFF 1  x7    (LAST TIME)
|---------------------0|----------------------------|
|----------------------|----------------------------|
|----------------556---|----------------556---------|
|--------------4----5--|--------------4----5--------|
|----------------------|----------------------------|
|-3h6p3-2h5p2---------0|-3h6p3-2h5p2----------3h6p3-|

GUITARS 1 & 2 RIFF 2
|--------------------------------------------------|
|--------------------------------------------------|
|--------------------------------------------------|
|-8-------9---9-------8---5-------6---6-------5----|
|-----7-8---5-----9-8---4-----3-4---2-----6-5---1--|
|---6-----------6-----------3-----------3----------|
                        PM
||------------------------------------------------||

PM = palm mute
h = hammer on
Related for Frantic Disembowelment tab