Song name
# A B C D E F G H I J K L M N O P Q R S T U V W X Y Z

Carbon Leaf - Toy Soldiers tab

-----------------------------------------------------------------------------
                            Toy Soldiers-Carbon Leaf
-----------------------------------------------------------------------------

Tabbed by rockgoody
e-mail: rockgoody@hotmail.com

Author: Carbon Leaf
Title:  Toy Soldiers

 (0:06 - 0:32)
E|------|------|------|------|------|------|---------|
B|3-----|3-----|------|------|------|------|---------|
G|2-----|2-----|------|--02--|------|------|---------|
D|0-----|0-----|--0400|04---0|---2--|------|--0------|
A|------|------|04----|------|420---|3--2--|02-20----|
E|------|------|------|------|------|------|-----3---|  x4

This sounds right to me. It's only that one intro.

 (0:00 - 0:36)
DDDDDD DDDDDD DDDDDD DDDDDD  CCCCCC GGGGGG    x6
><>><> ><>><> ><>><> ><>><> ><>><> ><>><> ><>><>

>=upstroke
<=downstroke
 = Am
Tap to rate this tab
# A B C D E F G H I J K L M N O P Q R S T U V W X Y Z