Guitaretab - guitar tabs
Song name
# A B C D E F G H I J K L M N O P Q R S T U V W X Y Z

Carlos Santana - Watch Your Step tab

-------------------------------------------------------------------------------
			     Watch Your Step - Santana
-------------------------------------------------------------------------------
Tabbed by: Chris

This is just the main riff, song follows a 12 bar blues progression in E

Tuning: Standard


  A        E
e|---------------------|x4
B|---------------------|
G|2--------------------|
D|2--------2-----------|
A|0--------2-----------|
E|---------0-----------|

 E
e|---------------------|x4
B|---------------------|
G|---------------------|
D|--2-2p0-2-0---0-0h2--|
A|-------2----2--------|
E|0--------------------|

 A
e|---------------------|x2
B|---------------------|
G|---------------------|
D|--7-7p5--7-5---5-5h7-|
A|--------7----7-------|
E|5--------------------|
[ Tab from: http://www.guitaretab.com/c/carlos-santana/172234.html ]
 E
e|---------------------|x2
B|---------------------|
G|---------------------|
D|--2-2p0-2-0---0-0h2--|
A|-------2----2--------|
E|0--------------------|

 B
e|---------------------|x1
B|---------------------|
G|---------------------|
D|--9-9p7--9-7---7-7h9-|
A|--------9----9-------|
E|7--------------------|

 A
e|---------------------|x1
B|---------------------|
G|---------------------|
D|--7-7p5--7-5---5-5h7-|
A|--------7----7-------|
E|5--------------------|

 E
e|---------------------|x2
B|---------------------|
G|---------------------|
D|--2-2p0-2-0---0-0h2--|
A|-------2----2--------|
E|0--------------------|

| /  slide up
| \  slide down
| h  hammer-on
| p  pull-off
| ~  vibrato
| +  harmonic
| x  Mute note

Theres other little fills and a solo, but cant really be bothered with those,  i just 
them tbh
===============================================================================
Related for Watch Your Step tab
Watch Your Step chords by Carlos Santana