Carlos Santana - Oye Como Va tab

Tabbed by:ravindra
Email:ravindrachangpoer@msn.com
Hi, I'm just a beginner so plz take it easy. this is my first tab to post. if there is 
any correction (which i think should be there) plz contact me.

e|-5----5-7-8-10--5/7\5--5--7-8-10-7--5--5---------------------|
B|-5---------------------5----------8--8---8-5-8-5-------------|
G|-5---------------------5--------------------------7-5h7p5----|
D|-7---------------------7----------------------------------7--|
A|-------------------------------------------------------------|
E|-------------------------------------------------------------|

e|-5--5-7-8-10--7---5---5--------------------------------------|
B|-5--------------8---8----8-5-8-5-----------------------------|
G|-5--------------------------------7b8r7p5--------------------|
D|-7-----------------------------------------7-----------------|
A|-------------------------------------------------------------|
E|-------------------------------------------------------------|

e|-5--5-7-8-10-7---5---5-----------------------------------|
B|-5-------------8---8---8-5-8-5---------------------------|
G|-5------------------------------7-5h7p5------------------|
D|-7---------------------------------------7---------------|
A|---------------------------------------------------------|
E|---------------------------------------------------------|

e|-555555-5-55555-5-55--------------------------|
B|-555555-7-55555-7-55--------------------------|
G|-555555-5-55555-5-55--------------------------|
D|-777777-7-77777-7-77--------------------------|
A|----------------------------------------------|
E|----------------------------------------------|

oye como va
mi ritmo
bueno par gozar
mulatta (twice)

e|-5555555-5-5------------------------------------------5--15-12-15-----|
B|-5555555-7-5------5-8-5-7---------------------5-8-5-7-----------------|
G|-5555555-5-5----5---------7-5-7-5-7-5-7-----5-------------------------|
D|-7777777-7-7--7---------------------------7---------------------------|
A|----------------------------------------------------------------------|
E|----------------------------------------------------------------------|

e|-------------------------------------------5-------8-5-5-8-5-8---5--------|
B|-----5-8-5-7-----------------------5-8-5-7---5-7-8-------------8----------|
G|---5---------7-5-7-5-7-5-7-------5----------------------------------------|
D|-7-------------------------77--7------------------------------------------|
A|--------------------------------------------------------------------------|
E|--------------------------------------------------------------------------|

e|-8--5-----------8p5555-8p5555-8p5555-----5------|
B|-------7--5--------------------------5/8--------|
G|-------------7----------------------------------|
D|------------------------------------------------|
A|------------------------------------------------|
E|------------------------------------------------|

e|-/12-12----12-----------------------------------------------------------|
B|--------15----15p13h15-13-15-13p12h13-15-13-12-----12-15-13-12----------|
G|------------------------------------------------14----------------------|
D|----------------------------------------------------------------14------|
A|------------------------------------------------------------------------|
E|------------------------------------------------------------------------|
-
e|----12~-12-13--------------------------------------------------------|
B|--------------15--15b17b15-13-15-13--15-13-12----12-15-13-12---------|
G|----------------------------------------------14---------------------|
D|-14-----------------------------------------------------------14-----|
A|---------------------------------------------------------------------|
E|---------------------------------------------------------------------|

e|----------------------------12-------------------------------12-------|
B|-------------------12-13-15----13-------------------------------13----|
G|-14-14-14p12h14p12----------------14-14--14-14p12----/14-14\----------|
D|--------------------------------------------------14------------------|
A|----------------------------------------------------------------------|
E|----------------------------------------------------------------------|

e|----------------------------------------------------12--------------12-----|
B|-------------12-13-15-13-12----------------12-13-15---131313\-15-15---13---|
G|-12-14p12h14----------------14-12-14p12h14------------------------------14-|
D|---------------------------------------------------------------------------|
A|---------------------------------------------------------------------------|
E|---------------------------------------------------------------------------|

e|-------12-15-14-15-14-12-14-12-------------------------------------12-15-|
B|-13-15-------------------------13-15-13--13-12-13-------------12-15------|
G|--------------------------------------------------14-12-14-14------------|
D|-------------------------------------------------------------------------|
A|-------------------------------------------------------------------------|
E|-------------------------------------------------------------------------|

e|----12----12-12121212\-----------------------12------------------------|
B|-15----15----13131313\-----15-15-13-15-13-15------13-15----1515-13-15--|
G|------------------------14---------------------14-------14-------------|
D|-----------------------------------------------------------------------|
A|-----------------------------------------------------------------------|
E|-----------------------------------------------------------------------|

e|--------------------------------------|
B|--------------------------------------|
G|-141414-14p12-141414-14p12-141414-----|
D|--------------------------------------|
A|--------------------------------------|
E|--------------------------------------|

I never go back to Georgia....
e|--12-15-17----------------------------|
B|--------------------------------------|
G|--------------------------------------|
D|--------------------------------------|
A|--------------------------------------|
E|--------------------------------------|


I never go back
e|------------------------------------|
B|------------------------------------|
G|-12h14-14\-14\-14\-14\--------------|
D|------------------------------------|
A|------------------------------------|
E|------------------------------------|

I never go back (play along)
e|----------------------12---------------------|
B|----15-15-13-15-13-15------13-15-----15-13\--|
G|-14---------------------14--------14---------|
D|---------------------------------------------|
A|---------------------------------------------|
E|---------------------------------------------|

  A5
e|-1717171717-----20^^ 20^^-20-20^^-20-17h20p17----17----------------|
B|-1717171717--20-------------------------------20----20-17h20p17----|
G-1414141414---------------------------------------------------------|
D|-------------------------------------------------------------------|
A|-------------------------------------------------------------------|
E|-------------------------------------------------------------------|

                     A5              B5
e|-------------------17171717171717171919191919191919--20^-20^-20-17----17-|
B|-------------------17171717171717171919191919191919----------------20----|
G|-19-19p17----17h19-14141414141414141616161616161616----------------------|
D|----------19-------------------------------------------------------------|
A|-------------------------------------------------------------------------|
E|-------------------------------------------------------------------------|

e|----------------------------------------------------------------|
B|-20-17---------------------8--8--8--8-5h8p5---------------------|
G|-------19-17----17-19^---7^-7^-7^-7^-------7-5h7p5--5-7^--------|
D|-------------19------------------------------------7----7-------|
A|----------------------------------------------------------------|
E|----------------------------------------------------------------|

   C5            D5
e|-2020202020202022222222222222-19-17-19-1717-19-1717-19-17-19-171717-1717-|
B|-2020202020202022222222222222---------------------------------------1818-|
G|-1717171717171719191919191919--------------------------------------------|
D|-------------------------------------------------------------------------|
A|-------------------------------------------------------------------------|
E|-------------------------------------------------------------------------|

e|----------------------------------------------|
B|-20-20p17-------------------------------------|
G|----------19-19p17----17----------------------|
D|-------------------19-------------------------|
A|----------------------------------------------|
E|----------------------------------------------|

e|-----------------------------------------------|
B|------5-5-7------------------------------------|
G|-55555-5---------------------------------------|
D|-----------4-5-6-7--(repeat 3 times)-----------|
A|-----------------------------------------------|
E|-----------------------------------------------|

e|-55555555-5-5---------------------------|
B|-55555555-7-5---------------------------|
G|-55555555-5-5---------------------------|
D|-77777777-7-7---------------------------|
A|----------------------------------------|
E|----------------------------------------|

Keyboard solo 2:56 chords used are Am and D orD7 (i am very weak in chords)

4:18

e|-5555555-5-55555-5-----------------|
B|-5555555-7-55555-7-----------------|
G|-5555555-5-55555-5-----------------|
D|-7777777-7-77777-7-----------------|
A|-----------------------------------|
E|-----------------------------------|

e|-5555555-5-5-----------------------|
B|-5555555-7-5-----------------------|
G|-5555555-5-5-----------------------|
D|-7777777-7-7-----------------------|
A|-----------------------------------|
E|-----------------------------------|

oye como va
mi ritmo
bueno par gozar
mulatta (twice)
                          OH!!
e|-55555555-55-55555-5-55-----5--------------|
B|-55555555-75-55555-7-55-----5--------------|
G|-55555555-55-55555-5-55-----5--------------|
D|-77777777-77-77777-7-77-----7--------------|
A|-------------------------------------------|
E|-------------------------------------------|

enjoy the tab and let me know your comments
Tap to rate this tab
 
# A B C D E F G H I J K L M N O P Q R S T U V W X Y Z