Carney - Think Of You tab

---------------------------------------------------------------------------
			     Think of You - Carney
---------------------------------------------------------------------------
Tabbed by: Megan7598

I'm pretty sure Reeve Carney actually has his guitar tuned differently but this sounds correct.

http://www.carneyband.com/

   D                                  Bm
e-*10--------------------------------------------------------------------|
B-*10--------------------------------------------------------------------|
G------11-------11-------11-------11------7----7----7----7---------------|
D----12--12---12--12---12--12---12--12---9-9--9-9--9-9--9-9--------------|
A------------------------------------------------------------------------|
E--10~------10~-----10~------10~-------7~---7~---7~---7~-----------------|

  A           G 
e------------------------------------------------------------------------|
B------------------------------------------------------------------------|
G-----6----6----4----4---------------------------------------------------|
D----7-7--7-7--5-5--5-5--------------------------------------------------|
A------------------------------------------------------------------------|
E--5~---5~---3~---3~----10~-[repeat]-------------------------------------|



************************************

| /   slide up
| \   slide down
| h   hammer-on
| p   pull-off
| ~   vibrato
| +   harmonic
| x   Mute note
| b   Bend
| pb  Pre-bend
| br  Bend release
| pbr Pre-bend release
| brb Bend release bend

************************************
Tap to rate this tab
 
# A B C D E F G H I J K L M N O P Q R S T U V W X Y Z