Song name
# A B C D E F G H I J K L M N O P Q R S T U V W X Y Z

Carney - Testify tab

d|---0--------0-----------0-----|---0--------0-----------0-------|
A|---0--------------------------|---0----------------------------|
G|---0h1p0----------------------|---0h1p0------------------------|
D|---------3p0--0-----0-------3-|---------3p0--0-----0-----------|
A|----------------0h3---3-3s5---|----------------0h3---3-3s5-----|
D|-0----------------------------|-0--------------------------3p0-|

d|---0--------0-----------0-----|--------------------------------|
A|---0--------------------------|--------------------------------|
G|---0h1p0----------------------|--------------------------------|
D|---------3p0--0-----0-------3-|----5--3------------------------|
A|----------------0h3---3-3s5---|-----------3p0------------------|
D|-0----------------------------|----------------3p0-------------|

and it's all, for you...

d|------------------------------|
A|------------------------------|
G|--7-7-7-7-7-------------------|
D|--7-7-7-7-7-5----3-0----------|
A|--5-5-5-5-5-5----3-0----------|
D|------------5----3-0----------| back to intro...

Tap to rate this tab
# A B C D E F G H I J K L M N O P Q R S T U V W X Y Z