Song name
# A B C D E F G H I J K L M N O P Q R S T U V W X Y Z

Cars - Shake It Up tab

               Hey.... I put the intro and verses on here except the solo i already made 
i got this......

                                  The Cars
                                 Shake it Up
                                 Shake it Up

    Legend
  X = no open strings but strum
  ~ = let it ring

E---------------------------------------------------------------------------|
B----5--5----5--5----3--3----7--7--7--7--7--7--7----------------------------|
G----5--5----5--5----3--3----7--7--7--7--7--7--7----------------------------|
D----5--5----5--5-----------------------------------------------------------|
A---------------------------------------------------------------------------|
E---------------------------------------------------------------------------|

   Repeats on Chorus then to the Mini verse.......

E---------------------------------------------------------------------------|
B---------------------------------------------------------------------------|
G-----------------9~~~~~~~-------------------9~~~~~~~---------7-------------|
D-----5~~~~~~~----9~~~~~~~-------XX5~~~~~~~--9~~~~~~~---5~~~--7-------------|
A-----5~~~~~~~----7~~~~~~~-------XX5~~~~~~~--7~~~~~~~---5~~~--5-------------|
E-----3~~~~~~~-------------------XX3~~~~~~~-------------3~~~----------------|

   Blah Blah Blah it repeats its self well heres another great tab...........


                        ROCKKKKKK  ONNNNNNNNNNN!!!!!!!!!!!!!!!!!!!!!!!!!!
Tap to rate this tab
# A B C D E F G H I J K L M N O P Q R S T U V W X Y Z