Song name
# A B C D E F G H I J K L M N O P Q R S T U V W X Y Z

Cars - Lets Go tab

'Let's Go' by The Cars
K-Mart Theme For 2008

E|--------------------------|
B|--------------------------|
g|---------7---7-6----------|
d|----7-9----------9-7------|
a|--------------------------|
e|--------------------------| 

E|--------------------------|
B|--------------------------|
g|---------7---7-6-9--------|
d|----7-9-------------------|
a|--------------------------|
e|--------------------------| 

E|--------------------------|
B|--------------------------|
g|---------7---7-6----------|
d|----7-9----------9-7------|
a|--------------------------|
e|--------------------------| 

E|--------------------------|
B|--------------------------|
g|--------------------------|
d|----5-4-----5-4-----------|
a|--------5-------5---------|
e|------------------5-------| 
Tap to rate this tab
# A B C D E F G H I J K L M N O P Q R S T U V W X Y Z