Cars - My Best Friends Girl tab

this isnt perfect but its close. the guitar is tuned a half step up. so it would 
be F,A#,D#,G#,C,F.
(palm mute) Intro x4 Verses x4
-------------------------------|
-------------------------------|
--------------2-2-2-22-4-4-4-4-|
-2-2-2-2--2-2-2-2-2-22-4-4-4-4-|
-2-2-2-2--2-2-0-0-0-00-2-2-2-2-|
-0-0-0-0--0-0------------------|

Chorus
--------------------------|
--------------------------|
--------------------------|
-----------------2------4-|
-----2-4-0--00-s4-2-2-s4--|
-0-3b---------------------|
(here she comes again)
when she's dancing 'neath the starry sky
oo she'll make you flip
(here she comes again)
when she's dancing 'neath the starry sky

2nd part of the chorus (palm mute)
-------------------------|
-------------------------|
-2-2-2-2-2-2-4-4-4-4-4---|
-2-2-2-2-2-2-4-4-4-4-4---|
-0-0-0-0-0-0-2-2-2-2-2---|
-------------------------|
I kinda like the way she dips
well she's my best friend's girl
she's my best friend's girl-irl
but she used to be mine

(this isnt right but its close)
Part after Chorus
-0----0--------0-0-----2-2-----|x2
---0----0-----2---2---4---4----|
-----1---0h1-2-----2-4-----4---|
-------------------------------|
-------------------------------|

thats it, during the solo you play the 2nd part of the chorus. have fun.
Tap to rate this tab
 
# A B C D E F G H I J K L M N O P Q R S T U V W X Y Z