Song name
# A B C D E F G H I J K L M N O P Q R S T U V W X Y Z

Cascada - Sk8ter Boi tab

-------------------------------------------------------------------------------
			    Sk8ter Boi - Cascada
-------------------------------------------------------------------------------
Tabbed by:oror3
Email:smolnikor@walla.com

Tuning:regular

The solo appear at 1:43 but can be in every chorus...

e|4-4-4-5-4-0-4-4-4-4-5-4-0-------0-0-0---------2-------0--------------------|
B|--------------------------------------4---4-------4------------------------|
G|---------------------------------------------------------------------------|
D|---------------------------------------------------------------------------|
A|---------------------------------------------------------------------------|
E|---------------------------------------------------------------------------|

the solo repeat once but like this:

e|4-4-4-5-4-0---4-4-4-5-4-0-------0-0-0---------2-------2-0---0--------------|
B|--------------------------------------4---4-------4-------4----------------|
G|---------------------------------------------------------------------------|
D|---------------------------------------------------------------------------|
A|---------------------------------------------------------------------------|
E|---------------------------------------------------------------------------|
Tap to rate this tab
# A B C D E F G H I J K L M N O P Q R S T U V W X Y Z