Song name
# A B C D E F G H I J K L M N O P Q R S T U V W X Y Z

Casualties - Down And Out tab

e|-----------------------------------|
B|-----------------------------------|
G|-----------------------------------|
D|-----------------------------------|
A|--0-2-2-3-2-0-2-0---5-7-7-8-7-5-7--|
E|------------------3----------------|

e|-------------------------------------------|
B|-------------------------------------------|
G|-------------------------------------------|
D|-------------------------------------------|
A|--0-2-2-3-2-0-2-0---8-7-5-7-5-3-5-3-2---0--|
E|------------------3-------------------3----|
Tap to rate this tab
 
# A B C D E F G H I J K L M N O P Q R S T U V W X Y Z