Song name
# A B C D E F G H I J K L M N O P Q R S T U V W X Y Z

Casualties - We Are All We Have chords

Intro
e[----------------------------------|
B[--2----4-5---5-5-5-7-5-4-2-0-2----|
G[----------------------------------|
D[----------------------------------|X2
A[----------------------------------|
E[----------------------------------|


Break
e[-----------------------------|
B[-----------------------------|
G[-----------------------------|
D[-----------------------------|X2
A[--11-11-11-11-9--7----14--9--|
E[--9--9--9--9--7--5----12--7--|

e[------------------------------------------------------------------------|
B[------------------------------------------------------------------------|
G[------------------------------------------------------------------------|
D[----------------------------------------9-9-9-9-9-9-9-9-----------------|X2
A[--11-11-11-11-11-11-9-9-7-7-7-7-7-7-7-7-7-7-7-7-7-7-7-7-9-9-9-9-9-9-9-9-|
E[--9--9--9--9--9--9--7-7-5-5-5-5-5-5-5-5-----------------7-7-7-7-7-7-7-7-|

Verse/chorus
e[-----------------------------------------------------}}
B[-----------------------------------------------------}}
G[-------------------------------------------------}---}}
D[-------------------------------------------------}}--}}
A[-11-11-11-11-11-11-11-11-14-14-14-14-14-14-14-14-----}}} }
E[-9--9--9--9--9--9--9--9--12-12-12-12-12-12-12-12-----}}  }
                                                      }X4
e[-----------------------------------------------------}}  }
B[-----------------------------------------------------}}} }
G[-------------------------------------------------}}--}}
D[-------------------------------------------------}---}}
A[-7-7-7-7-7-7-7-7-9-9-9-9-9-9-9-9---------------------}}
E[-5-5-5-5-5-5-5-5-7-7-7-7-7-7-7-7---------------------}}


4th time for verse

e[---------------------------------|
B[---------------------------------|
G[---------------------------------|
D[------------------9-----9--------|
A[-7-7-7-7-7-7-7-7--7--9--7--9-----|
E[-5-5-5-5-5-5-5-5-----7-----7-----|


Break 2
NOW......
D[-----------------------------------------|
A[-14-14-14-14-14-14-14-14-7-7-7-7-9-9-9-9-|
E[-12-12-12-12-12-12-12-12-5-5-5-5-7-7-7-7-|

RIGHT NOW......
D[-----------------------------------------|
A[-14-14-14-14-14-14-14-14-7-7-7-7-9-9-9-9-|
E[-12-12-12-12-12-12-12-12-5-5-5-5-7-7-7-7-|


Chorus
Verse
Break 2
Chorus
Break 2
verse
verse(wihout guitar/ bass part)
chorus X2
Tap to rate this tab
 
# A B C D E F G H I J K L M N O P Q R S T U V W X Y Z