Song name
# A B C D E F G H I J K L M N O P Q R S T U V W X Y Z

Casualties - 4q tab

Intro:
repeat 2x
-----------------------------------13-13-13-13---15-15-|
-12-12-12-12-12---15-15-15-15-15---13-13-13-13---13-13-|
-12-12-12-12-12---12-12-12-12-12-----------------------|
-------------------------------------------------------|
-------------------------------------------------------|
-------------------------------------------------------|

this part is also done in the middle of the song after
2nd chorus and after 4th chorus repeat 2x
---------------------------13-13-13-13-13-13-15-15--|
-12-12-12-12-12-12-15-15---13-13-13-13-13-13-13-13--|
-12-12-12-12-12-12-12-12----------------------------|
----------------------------------------------------|
----------------------------------------------------|
----------------------------------------------------|

Verses: 3x
---------------------------------------|
---------------------------------------|
----------------7-7--5-5-5-5-5-5--7-7--|
-5-5-5-5-5-5-5--7-7--5-5-5-5-5-5--7-7--|
-5-3-5-5-5-5-5--5-5--3-3-3-3-3-3--5-5--|
-3-3-3-3-3-3-3-------------------------|

Chorus:
---------------|
---------------|
-7----7-5-7----|
-7-5--7-5-7-5--|
-5-5--5-3-5-5--|
---3--------3--|


Cheers,
&
Please feel free to add corrections.
Tap to rate this tab
# A B C D E F G H I J K L M N O P Q R S T U V W X Y Z