Song name
# A B C D E F G H I J K L M N O P Q R S T U V W X Y Z

Catfish And The Bottlemen - Homesick chords

Highlighted       Show chord diagrams
-------------------------------------------------------------------------------
                             HOMESICK - Catfish and the Bottlemen
-------------------------------------------------------------------------------
Tabbed by: Ben Musgrove
E-mail: mussyjunior@hotmail.co.uk

Tuning: Standard, capo on 7

Intro:

e|---------------------------------------------------------------------------|
B|---------------------------------------------------------------------------|
G|---0-----------------0-----------------0-----------------------------------|
D|-2-----4---2---0---2-----4---2-------2-----4---2---0---------------2-------|
A|-----5---3---2---------5---3-------------5---3---2---2-----2---0-----------|
E|-----------------------------------------------------3---3---2---0---------|

Runs over the initial verses as well, although you can play the simple chords and have 
it sound fine. Fingerpick the above for best results.

Verse:

Em    D      C         G/B
I got misled, mistook, discard.
Em D          C
Anything that I said
Em      D        C       G/B    G
I'm not the type to call you up drunk,
    G        D/F#      Em
But I've got some lies to tell.
Em        D        C         G/B
She hates her work but loves to flirt.
Em         D          C
Shame, she don't work with me.
Em       D           C          G/B      G
She gets uptight and don't like when I'm gal.
     G         D/F#      Em
But, she won't let on to me.


Interlude:

e|--------------------------------------------------------------------------|
B|---3---0---1---------3---0---1---------3---0---1--------------------------|
G|---------------2-----------------------------------2-0-----4---2---0------|
D|-2-----------------2-----------------2------------------------------------|
A|-----5---3---3---------5---3-------------5---3---2------------------------|
E|-----------------------------------------------------3---3---2---0--------|

Chorus:

       Em      D        C
I said I'm only looking out for you,
              Em      D        C
she said It's obvious that's a lie.
     Em     D        C
But, I only ever put out for you,
             Em      D        C
You know Its obvious you don't try.

On the the extended choruses, the second half changes slighty:

       G      D        C
I said I'm only looking out for you,
              Em      D        C
she said It's obvious that's a lie.
     G     D        C
But, I only ever put out for you,
             Em      D        C
You know Its obvious you don't try.

Solo:

e|-------------------------------------------------------------------------|
B|-------------------------------------------------------------------------|
G|----------------------------------0-2-0----------------------------------|
D|---------0-2s4-2~---------0-2s4-2-------4--------------------------------|
A|-----0-2--------------0-2------------------------------------------------|
E|-0-3--------------0-3----------------------------------------------------|
   x2

Lyrics:

I got misled, mistook, discard.
Anything that I said.
I'm not the type to call you up drunk,
But I've got some lies to tell.
She hates her work but loves to flirt.
Shame, she don't work with me.
She gets uptight and don't like when I'm gal.
But, she won't let on to me.

I said I'm only looking out for you,
she said It's obvious that's a lie.
But, I only ever put out for you,
You know it's obvious you don't try.

I got mistook and took dissent
and it's not as if you didn't notice
I tried the handle of her car's door
cause I needed something to show for it.
She said you never got that from me
but you got that look from me.

I said I'm only looking out for you,
she said It's obvious that's a lie.
But, I only ever put out for you,
You know it's obvious you don't try.

I got misled, mistook, discard.
Anything that I said.
I'm not the type to call you up drunk,
But I've got some lies to tell.
Tap to rate this tab
# A B C D E F G H I J K L M N O P Q R S T U V W X Y Z