Song name
# A B C D E F G H I J K L M N O P Q R S T U V W X Y Z

Catherine Wheel - Crank tab

CRANK
as transcribed by Marcel Levi 

http://www.cwcovercomp.com/tabs/crank.txt

Provided by the Catherine Wheel Cover Compilation.
These are unofficial tabs, not authored or endorsed by The Catherine Wheel.
All authorship credit goes to the author(s) mentioned above.

\\\\\\\\\\\\\\\\\\\\\\\\\\\\\\\\\\\\\\\\\\\\\\\\\\\\\\\\\\\\\\\\\\\\\\\\\\\



INTRO:
   Em        G        D
|--------------------------2--------|
|------------------------3---3------|
|.-------0--------0----2-------2---.|
|.-----2--------0----0-----------0-.|
|----2--------2---------------------|
|--0--------3-----------------------|

VERSE:
   Em       G       D
|---------------------------------------------|
|---------------------------------------------|
|.-------------------------------------------.|
|.-2-2-2-2-0-0-0---0--0--0--0--0--0--0--0--0-.|
|--2-2-2-2-2-2-2-/-9--9--9--9--9--9--9--9--9--|
|--0-0-0-0-3-3-3-/-10-10-10-10-10-10-10-10-10-|

   Love      my  superstitious
   games     Running circles round my brain
             when I'm left smiling

 I love      to steal this living
   steam     My head in someone's dream
             I'm tired of sleeping

               CHORUS:
                  B       G     D               (4x)
|--------------|-----------------------------------|
|--------------|--4-4-4-4--------------------------|
|--------------|.-4-4-4-4-------7-7-7-7-7-7-7-7-7-.|
|-0--0--0--0---|.-4-4-4-4-5-5-5-7-7-7-7-7-7-7-7-7-.|
|-9--9--9--9---|--2-2-2-2-5-5-5-5-5-5-5-5-5-5-5-5--|
|-10-10-10-10--|----------3-3-3--------------------|

  Call, Call me crank,         my idea
                Crank,         so super
                Crank,         my conscience clear

CHORDS THROUGH SOLO: Bm C D (3x) 
E--7-8---------------7-8-------------
B------8-10-7-8----------8-10-7-8----
G---------------7--------------------
D------------------------------------
A------------------------------------
E------------------------------------

(FIRST GUITAR RIFF CAN USED INSTEAD OF CHORDS)

I build my canopy of steel
It fulfills my sense of real
A chrome protection

Call me crank, my idea
Crank, so super
Crank, my conscience clear
It's clear

BRIDGE:
   C                         B       G     D
|--3----------------------|-----------------------------------|
|--5----------------------|--4-4-4-4--------------------------|
|--5---------------------.|.-4-4-4-4-------7-7-7-7-7-7-7-7-7-.|
|--5---------------------.|.-4-4-4-4-5-5-5-7-7-7-7-7-7-7-7-7-.|
|--3----------------------|--2-2-2-2-5-5-5-5-5-5-5-5-5-5-5-5--|
|-------------------------|----------3-3-3--------------------|

In this small partition,
like a prison, explode time bomb

CHORDS THROUGH SOLO: Bm G D (3x)
E-------------------------------
B--7/12\10--7/8\7\5\3--7/12\10--
G-------------------------------
D-------------------------------
A-------------------------------
E-------------------------------

   C              A           B
|--3----------------------------------|
|--5--------------2-----------4-------|
|--5--------------2-----------4------.|
|--5--------------2-----------4------.|
|--3--------------0-----------2-------|
|-------------------------------------|

If you know where I come from

You call me crank, my idea
Crank, so super
Crank, my conscience clear
Please call me crank, it's what I need
Crank, my mind in seed
Crank, my dream complete

Lay down, lay down, lay down
Tap to rate this tab
# A B C D E F G H I J K L M N O P Q R S T U V W X Y Z