Song name
# A B C D E F G H I J K L M N O P Q R S T U V W X Y Z

Cccp - Emilia Paranoica tab

----------------------------------------------------------------------------
Emilia Paranoica - Cccp
----------------------------------------------------------------------------
Album: Maciste contro tutti (live)

Autore: Rainboworiginal
Email: andrea.vox@hotmail.it

Autore della prima stesura: "Olaf3"  

Tuning: E

1st Theme

e|---------------------------|
B|---------------------------|
G|---12----9----9--9--9--9---|
D|---12----9----9--9--9--9---|
A|---10----7----7--7--7--7---|
E|---------------------------|


First Riff   (Only one guitar)

e|----------------------------------------------------------------------------------------|
B|----------------------------------------------------------------------------------------| 
G|:---9--12-12-12-12-12-12-11-10-9-9-9-9-9-9------9--12-12-12-14-14-12-11-10-9-9-9-9-9-9-:|  x2
D|----------------------------------------------------------------------------------------|
A|----------------------------------------------------------------------------------------|
E|----------------------------------------------------------------------------------------|


Second Riff  (only one guitar)

e|---------------------------------------------------------|
B|---------------------------------------------------------|
G|--8-9--8-8-9-8-9-8-9-8---12----8-9--8-8-9-8-9-8-9----12--|
D|---------------------------------------------------------|
A|---------------------------------------------------------|
E|---------------------------------------------------------|

e|---------------------|
B|---------------------|
G|:---12-10-9--9-9-9--:|  x4
D|---------------------|
A|---------------------|
E|---------------------|


2nd Theme

Guitar 1

e|---------------------------------------------------------|
B|---------------------------------------------------------|
G|--8-9--8-8-9-8-9-8-9-8---12----8-9--8-8-9-8-9-8-9----12--|
D|---------------------------------------------------------|
A|---------------------------------------------------------|
E|---------------------------------------------------------|

Guitar 2

e|---------------------------------------------------------|
B|---------------------------------------------------------|
G|--9----------------------12----9---------------------12--|
D|--9----------------------12----9---------------------12--|
A|--7----------------------10----7---------------------10--|
E|---------------------------------------------------------|


Bridge  (All guitars)

e|----------------------------------------|
B|----------------------------------------|
G|----8---7---6---5------8---7---6---5----|
D|----8---7---6---5------8---7---6---5----|
A|----6---5---4---3------6---5---4---3----|


Successione

1st Theme

nella mia memoria  First Riff  


1st Theme

cosa resta e cosa va  Second Riff   x6
 

Bridge
 
Secondo Motivo x4
 

Bridge
 
Secondo Motivo x4

Slow end.


Restart

Motivo principale

amor mio che non muore   First Riff


1st Theme

Spara Jurij
                    

2nd Theme


End.


Lyric

Freddo più pungente, accordi secchi e tesi,
Segnalano il tuo ingresso nella mia memoria.

Consumami distruggimi, è un po' che non mi annoio,
aspetto un'emozione sempre più indefinibile
sempre più indefinibile.

Teatri vuoti e inutili potrebbero affollarsi,
se tu ti proponessi di recitare te.
Emilia Paranoica!  Emilia Paranoica!

Chiedi al '77 se non sai come si fa
Chiedi al '77 cosa resta e cosa va.
E-MI-LIA   PA-RA-NOI-CA

Emilia di notti dissolversi in stupide sparire una duna
impotenti in un posto nuovo, che palle!

Emilia di notti agitate per riempire la vita
Emilia di notti tranquille in cui seduzione è dormire.

Emilia di notti ricordo senza che torni la felicità
Emilia di notti di attesa di non so più quale amor mio, che non muore.

Emilia di notti di attesa di non so più quale amor mio, che non muore.
E non sei tu!  E non sei tu!  E non sei tu!
Emilia Paranoica
Emilia Paranoica
PA-RA-NOI-CA
 PA-RA-NOI-CA ..
Tap to rate this tab
# A B C D E F G H I J K L M N O P Q R S T U V W X Y Z