Song name
# A B C D E F G H I J K L M N O P Q R S T U V W X Y Z

Ceremony - Violence tab

violence violence
bridge nine records
www.ceremonyhc.com
www.myspace.com/ceremony
standard tuning half-step down


let all the notes ring for the whole song
-------2-------------1--1-0-------1-0-----------|
-----0-------------0--------0---------0---------|
---3-------x2----3------------3---------3-------|
-0-------------0----------------0---------3-----|
------------------------------------------------|
------------------------------------------------|


---------2-------1--1-0-------1-0---------------|
-------0-------0--------0---------0-------------|
-----3-------3------------3---------3-----------|
-3-0-------0----------------0---------3---------|
------------------------------------------------|
------------------------------------------------|


-----------------------2------------------------|
-------0-------------0-0------------------------|
-----3---3--x3-----3---3------------------------|
-3-0-----------3-0-----0------------------------|
------------------------------------------------|
------------------------------------------------|
Tap to rate this tab
# A B C D E F G H I J K L M N O P Q R S T U V W X Y Z