Song name
# A B C D E F G H I J K L M N O P Q R S T U V W X Y Z

Charlie Daniels Band - The Devil Went Down To Georgia tab

The Devil Went Down to Georgia, Steve Ouimette
-------------------------------------------------------------------------------
	         The Devil Went Down to Georgia – Steve Ouimette
-------------------------------------------------------------------------------
Tabbed by: Aaron Herring
I saw this song played on YouTube at http://www.youtube.com/purplegorillapro

Tuning: Drop D (DADGBE)

This tab includes the Devil's solo and the unaccompanied solo.


INTRO
e|------------------15-17--17-18-17-15-------|
B|-15--15-17-18--18--------------------18-17-|
G|-------------------------------------------|
D|-------------------------------------------|
A|-------------------------------------------|
D|-------------------------------------------|

e|--------------------13-15-17-15-13---------|
B|-13--13-15-17-15-17----------------17~-----|
G|-------------------------------------------|
D|-------------------------------------------|
A|-------------------------------------------|
D|-------------------------------------------|

E|--------------------------------------------------------|
B|-15-17-15-13-13-15-13-11-11-13-11-10-8-10-8-6-6-8-6-5---|
G|------------------------------------------------------7-|
D|--------------------------------------------------------|
A|--------------------------------------------------------|
D|--------------------------------------------------------|

E|-------------------------------------------|
B|-------------------------------------------|
G|-2--5--7-----------------------------------|
D|---------0-----------------------7---------|
A|---------------------------0--3--5---------|
D|-------------------------------------------|

VERSE (PALM MUTE)
E|---------------------------------|
B|---------------------------------|
G|---------------------------------|x7
D|---------------------------------|
A|---------------------------------|
D|-0-0-0-0-0-0-0-0-0-0-0-0-0-0-0-0-|

E|---------------------------------|
B|---------------------------------|
G|---------------------------------|
D|---------------------------7-----|
A|------------------5--0--3--5-----|
D|-0-0-0-0-0-0-0-0-----------------|

(SECOND GUITAR VOLUME SWELL ON A HARMONIC)

VERSE PT.2
E|-------------------------------------------|
B|-------------------------------------------|
G|-------------------------------------------|
D|-------------------------------------------|
A|-------------------------------------------|
D|10h12-0-0-0-0-10h12-0-0-0-0-10h12-0-0------|

E|-------------------------------------------|
B|-------------------------------------------|
G|-------------------------------------------|
D|-------------------------------------------|
A|-------------------------------------------|
D|10h12-0-0-0-0-13h12-0-0-0-0-10h12-0-0------|

E|-------------------------------------------|
B|-------------------------------------------|
G|-------------------------------------------|
D|-------------------------------------------|
A|-------------------------------------------|
D|10h12-0-0-0-0-10h12-0-0-0-0-10h12-0-0------|

E|-------------------------------------------|
B|-------------------------------------------|
G|-------------------------------------------|
D|-------------------------------------------|
A|-------------------5--0---3----------------|
D|10h12-0-0-0-0-0-0--0-----------------------|

E|-------------------------------------------|
B|-------------------------------------------|
G|-------------------------------------------|
D|-------------------------------------------|
A|-------------------------------------------|
D|10h12-0-0-0-0-10h12-0-0-0-0-10h12-0-0------|

E|-------------------------------------------|
B|-------------------------------------------|
G|-------------------------------------------|
D|-------------------------------------------|
A|-------------------------------------------|
D|10h12-0-0-0-0-13h12-0-0-0-0-10h12-0-0------|

E|-------------------------------------------|
B|-------------------------------------------|
G|-------------------------------------------|
D|-------------------------------------------|
A|-------------------------------------------|
D|10h12-0-0-0-0-10h12-0-0-0-0-10h12-0-0------|

E|-------------------------------------------|
B|-------------------------------------------|
G|------------------x-x-x-x-x-x-x-x----------|
D|------------------x-x-x-x-x-x-x-x----------|
A|------------------x-x-x-x-x-x-x-x----------|
D|10h12-0-0-0-0-0-0--------------------------|


CHORUS

Johnny, Rosin up your bow
E|-------------------------------|
B|-------------------------------|
G|-x-x-7---x-x-7---x-x-7---x-x-7-|
D|-x-x-7---x-x-7---x-x-7---x-x-7-|
A|-x-x-5---x-x-5---x-x-5---x-x-5-|
D|-------------------------------|

and play that fiddle hard
E|-------------------------------|
B|-------------------------------|
G|-x-x-5---x-x-5---x-x-5---x-x-5-|
D|-x-x-5---x-x-5---x-x-5---x-x-5-|
A|-x-x-3---x-x-3---x-x-3---x-x-3-|
D|-------------------------------|

’cuz hell’s broke loose in Georgia
E|-------------------------------|
B|-------------------------------|
G|-x-x-12--x-x-12--x-x-12--x-x-12|
D|-x-x-12--x-x-12--x-x-12--x-x-12|
A|-x-x-10--x-x-10--x-x-10--x-x-10|
D|-------------------------------|

and the devil deals the cards
E|-------------------------------|
B|-------------------------------|
G|-x-x-7---x-x-7---x-x-7---x-x-7-|
D|-x-x-7---x-x-7---x-x-7---x-x-7-|
A|-x-x-5---x-x-5---x-x-5---x-x-5-|
D|-------------------------------|

And if you win you get this shiny
E|-------------------------------|
B|-------------------------------|
G|-x-x-7---x-x-7---x-x-7---x-x-7-|
D|-x-x-7---x-x-7---x-x-7---x-x-7-|
A|-x-x-5---x-x-5---x-x-5---x-x-5-|
D|-------------------------------|

Fiddle made of gold…
E|-------------------------------|
B|-------------------------------|
G|-x-x-5---x-x-5---x-x-5---x-x-5-|
D|-x-x-5---x-x-5---x-x-5---x-x-5-|
A|-x-x-3---x-x-3---x-x-3---x-x-3-|
D|-------------------------------|

…but if you lose, the devil gets your soul
E|-------------------------------------------|
B|-------------------------------------------|
G|-------------------------------------------|
D|-7---------------------------7---5---3---2-|
A|-7---------------------------7---5---3---2-|
D|-7---------------------------7---5---3---2-|


BRIDGE

e|------------------15-17--17-18-17-15-------|
B|-15--15-17-18--18--------------------18-17-|
G|-------------------------------------------|
D|-------------------------------------------|
A|-------------------------------------------|
D|-------------------------------------------|

e|--------------------13-15-17-15-13---------|
B|-13--13-15-17-15-17----------------17~-----|
G|-------------------------------------------|
D|-------------------------------------------|
A|-------------------------------------------|
D|-------------------------------------------|

E|--------------------------------------------------------|
B|-15-17-15-13-13-15-13-11-11-13-11-10-8-10-8-6-6-8-6-5---|
G|------------------------------------------------------7-|
D|--------------------------------------------------------|
A|--------------------------------------------------------|
D|--------------------------------------------------------|

E|------------------|
B|------------------|
G|-2--5--7----------|
D|------------------|
A|------------------|
D|------------------|

2ND VERSE (after two measures of drums)

…and he pulled the bow…
E|---------------------------------|
B|---------------------------------|
G|---------------------------------|x3
D|---------------------------------|
A|---------------------------------|
D|-0-0-0-0-0-0-0-0-0-0-0-0-0-0-0-0-|

…and it sounded something like this
E|---------------------------------|
B|---------------------------------|
G|---------------------------------|
D|---------------------------------|
A|------------------5--0--3--------|
D|-0-0-0-0-0-0-0-0-----------------|

INTERLUDE

E|-------------------------------------------|
B|-3-xx3-x6-6-x6-xx5-xx5-x3-3-x3-xx----------|
G|-2—xx2-x5-5-x5-xx4-xx4-x2-2-x2-xx----------|x2
D|-------------------------------------------|
A|-------------------------------------------|
D|-------------------------------------------|

E|-------------------------------------------|
B|-------------------------------------------|
G|-------------------------------------------|x2
D|-7-----------------------------------------|
A|-5---------5-------------------------------|
D|-0-0-5-6-7---765-5-3-5-6-7-3-5-3-----------|

THE DEVIL'S SOLO
SOLO PT. 1

E|-------------------------------------------------|
B|-------------------------------------------------|
G|-14h15p14h15p14h15p14h15p14h15p14h15p14h15p14h15-|
D|-------------------------------------------------|
A|-------------------------------------------------|
D|-------------------------------------------------|

E|-22p17-------------------------------------------|
B|------18-----------------------------------------|
G|--------19---------------------------------------|
D|-----------20p19p17----------------0-------------|
A|--------------------20-17------------0-----------|
D|--------------------------19-17-15-----5-3-0-0-3-|

e|---------------------------8-10-12p8h10p5h8p3h5p8|
B|----------------------8-10-----------------------|
G|-----------------7-10----------------------------|
D|------7-0---7-10---------------------------------|
A|0-7-8-----8--------------------------------------|
D|-------------------------------------------------|

e|------5-8-10---10-13---13-17---------------------|
B|-6s10--------------------------------------------|
G|-------------------------------------------------|
D|-------------------------------------------------|
A|-------------------------------------------------|
D|-------------------------------------------------|

SOLO PT. 2 

E|-------------------------------------------------|
B|-10h15p10--------10h15p10--------10h15p10--------|
G|---------11p10h11--------11p10h11--------11p10h11|x4
D|-------------------------------------------------|
A|-------------------------------------------------|
D|-------------------------------------------------|

e|---------------------------------------------12----13---|
B|-10h15p10---------------------------------14----14----15|
G|---------11-------------------12-15-13-14---------------|
D|------------------12-15-13-14---------------------------|
A|------------12-13---------------------------------------|
D|--------------------------------------------------------|

SOLO PT. 3

E|-------------------------------------------------|
B|-15-15-15-15-15-15-15-15-15-15-15-15-15-15-15-15-|
G|-------------------------------------------------|
D|-------------------------------------------------|
A|-------------------------------------------------|
D|-------------------------------------------------|

e|-------------15-15-17-18-18-17-15----------------|
B|-17-17-18-18----------------------18-17-15-------|
G|-------------------------------------------------|
D|-------------------------------------------------|
A|-------------------------------------------------|
D|-------------------------------------------------|

(This part is tricky, use your left hand to hammer on)
E|---------------------------------------------------------------------------|
B|-15h20p18p15p13h18p15p13p11h15p13p11p8h13p11p8p6h11p8p6p3h8p6p3p1h6p3p1----|
G|---------------------------------------------------------------------------|
D|---------------------------------------------------------------------------|
A|---------------------------------------------------------------------------|
D|---------------------------------------------------------------------------|

e|---------------------------------------------------5h7h8p7---4-------------|
B|----------------------------------------5h6h8p5h6h8--------0---------------|
G|h3h7p5p3--h7p5p3p0--------------5h7--5h7-----------------------------------|
D|--------h6--------h10p8p5--5h6h8---h8--------------------------------------|
A|-------------------------h8------------------------------------------------|
D|---------------------------------------------------------------------------|

SOLO PT. 4

e|-----------------------------------------------------------------------0---|
B|---------------------------------------------------------------------------|
G|---------------------------5-7---5---7---x5-------5h7-7p5------------------|
D|-0-3-4-0-4-5-0-5-6-0-6-7-0-----7---------------5h6--------7------0h2h3--3--|
A|------------------------------------------------------------0h2h3----------|
D|---------------------------------------------------------------------------|

e|------0---------------7--5-------------------19--17------------------------|
B|-3p0h2----5h6h7-3h4h5------17h18h19-15h16h17-------------------------------|
G|--------2------------------------------------------------------------------|
D|---------------------------------------------------------------------------|
A|---------------------------------------------------------------------------|
D|---------------------------------------------------------------------------|

SOLO PT. 5

e|--------------------------------------------3--x---6--x---5x-x-b13--|
B|-3h6p3h6p3h6p3h6p3h6p3h6p3x--2h5p2x-x2h5-2h5----2h5----2h5----------|
G|--------------------------------------------------------------------|
D|--------------------------------------------------------------------|
A|--------------------------------------------------------------------|
D|--------------------------------------------------------------------|


e|----0--b21---b18--|
B|-10---------------|
G|------------------|
D|------------------|
A|------------------|
D|------------------|

E|-18-15------------17-14------------16-13------------15-12------------|
B|-------17p15------------16p14------------15p13------------14p12------|
G|------------15p14------------14p13------------13p12------------12p11-|
D|---------------------------------------------------------------------|
A|---------------------------------------------------------------------|
D|---------------------------------------------------------------------|

SOLO PT. 6

e|----14-15-12----------12-15-12-------12-15-12----------12-12-15-17-13-|
B|-16----------13-12-13----------13-14----------14-13-14----------------|
G|----------------------------------------------------------------------|
D|----------------------------------------------------------------------|
A|----------------------------------------------------------------------|
D|----------------------------------------------------------------------|

e|----13-17-13----------13-17-16----------13-17-13----13-17-13--------|
B|-13----------16-14-16----------13----16----------16----------14-16--|
G|----------------------------------16--------------------------------|
D|--------------------------------------------------------------------|
A|--------------------------------------------------------------------|
D|--------------------------------------------------------------------|

E|-13-17-13----------13-14--------------------------------------------|
B|----------16-14-16-------16-13----16-13-----------------------------|
G|-------------------------------14-------14-12-------12----10--------|
D|----------------------------------------------15-12----12----12-----|
A|----------------------------------------------------------------15--|
D|--------------------------------------------------------------------|

E|------------------|
B|------------------|
G|------------------|
D|-12---------------|
A|----15-12-10------|
D|-------------12---|

SOLO PT. 7

e|----20------20----|
B|------------------|
G|-19---------------|
D|------------------|
A|------------------|
D|------------------|

e|----------------------------------12----12-------------------0slide-|
B|----------------------------13-------13-------13--------------------|
G|----------------12----14-12----14----------14----12-14-12-14--------|
D|----12----15-12----15-----------------------------------------------|
A|-12----15-----------------------------------------------------------|
D|--------------------------------------------------------------------|

SOLO PT. 8 (the most difficult solo, it’s almost all sweep picking)

e|-----------------------------------10------------10------------------------|
B|----------------------13-----10--10--13p10--10h13--10-------------------13-|
G|------10---------10h12--10h12--12---------12---------12p10---------10h12---|
D|-10h13--13--10h13-----------------------------------------13p10--10--------|
A|----------12---------------------------------------------------12----------|
D|---------------------------------------------------------------------------|

e|------------------10-------10--10--10h13h15p13p10--13------10--------------|
B|------10-----10h13----10h13--10--10--------------13--10--10--13p10h11------|
G|-10h12--10h12-------12---------------------------------12------------------|
D|---------------------------------------------------------------------------|
A|---------------------------------------------------------------------------|
D|---------------------------------------------------------------------------|

E|---------------------------------------------------------------------------|
B|---------------------------------------------------------------------8-----|
G|-------7------------------------------------------10-----8h10----8h10-7h10-|
D|-9-7-10-8-------7-8------5---------6h7-0-8p6h7h10----7h10----7h10----------|
A|---------10p7h10---10p7h8-8p7p5p3h5----------------------------------------|
D|---------------------------------------------------------------------------|

e|--------10h13-------8h10--------------13h15h17p15p13p10p8------------------|
B|-8h10--8-----10p8h10----10p8----13-15--------------------11p9-------11p10--|
G|-----10----------------------10------------------------------10p8h10-------|
D|---------------------------------------------------------------------------|
A|---------------------------------------------------------------------------|
D|---------------------------------------------------------------------------|

e|-------------------------------------------------------------------------4-|
B|-------------------------------------------------------------------------3-|
G|-10p8p7--8--9------17h18h19p17-----19p17p14p12-10-11--12-----------------4-|
D|----------------10---------------------------------------------------------|
A|---------------------------------------------------------12-11-10-8-9--5---|
D|---------------------------------------------------------------------------|

CHORUS 2

…Fire on the mountain, run boys run
E|---------------------------------------------------------------------------|
B|---------------------------------------------------------------------------|
G|-7-------------3h15p3h15p3h15p3h15p3h15p3h15p3h15p3h15p2p14p1h13p0h12p2s3--|
D|-7-------------------------------------------------------------------------|
A|-5-------------------------------------------------------------------------|
D|---------------------------------------------------------------------------|

Devil’s in the house of the rising sun
E|---------------------------------------------------------------------------|
B|---------------b16---------------------------------------------------------|
G|-5-------------------------------------------------------------------------|
D|-5-------------------------------------------------------------------------|
A|-3-------------------------------------------------------------------------|
D|---------------------------------------------------------------------------|

Chicken in the bread pan pickin’ out dough
e|--------------------------------------------------------------b15----------|
B|---------------14h15h18p15p14h15h18p15p14h15h18p15p14h15h18p15-------------|
G|-7-------------------------------------------------------------------------|
D|-7-------------------------------------------------------------------------|
A|-5-------------------------------------------------------------------------|
D|---------------------------------------------------------------------------|

“Granny does your dog bite” “no child no”
e|---------------22-20-------------------------------------------------------|
B|---------------------22-20----20-22-20-22~---------------------------------|
G|-5-------------------------21----------------------------------------------|
D|-5-------------------------------------------------------------------------|
A|-3-------------------------------------------------------------------------|
D|---------------------------------------------------------------------------|

JOHNNY'S PRE-SOLO RIFF

e|---------------------------------------------------------5-----------------|
B|-5-6-5-6-8-6-5---5-6-5-6-8-6-5-------------------6-8-6-8---8-8-------------|
G|---------------7---------------7-9-5-7-5-7-9-7-9---------------------------|x3
D|---------------------------------------------------------------------------|
A|---------------------------------------------------------------------------|
D|---------------------------------------------------------------------------|

e|---------------------------------------------------------------------------|
B|-22-18-20-17-18-15-17-13-15-12-13-10-12-9-10-6-9-5-6-2-3-0-2---------------|
G|-------------------------------------------------------------3-5-2-3-0-2---|
D|-------------------------------------------------------------------------3-|
A|---------------------------------------------------------------------------|
D|---------------------------------------------------------------------------|


ENDING

e|---------------------------------------------------------5-----------------|
B|-5-6-5-6-8-6-5---5-6-5-6-8-6-5-------------------6-8-6-8---8-8-------------|
G|---------------7---------------7-9-5-7-5-7-9-7-9---------------------------|x2
D|---------------------------------------------------------------------------|
A|---------------------------------------------------------------------------|
D|---------------------------------------------------------------------------|

E|---------------------------------------------------------------------------|
B|-5-6-5-6-8-6-5---5-6-5-6-8-6-5------5--6--8--10--8--6--5-------------------|
G|---------------7---------------7-7--4--5--7---9--7--5--4-------------------|
D|---------------------------------7-----------------------------------------|
A|---------------------------------5-----------------------------------------|
D|---------------------------------------------------------------------------|

E|---------------------------------------------------------------------------|
B|-10---8--6---5-----10---8--6---5------10--8--6--5--------------------------|
G|--9---7--5---4------9---7--5---4-------9--7--5--4--7--5-----7--7-----------|
D|---------------------------------------------------7--5-----7--7-----------|
A|------------------------------------------------------------5--5-----------|
D|---------------------------------------------------------------------------|


| b bend
| wd whammy dive
| / slide up
| \ slide down
| h hammer-on
| p pull-off
| ~ vibrato
| + harmonic
| x Mute note
===============================================================================


The Devil Went Down to Georgia, Steve Ouimette
 Aaron Herring tab @ http://www.ultimate-guitar.com/
Tap to rate this tab
 
# A B C D E F G H I J K L M N O P Q R S T U V W X Y Z