Guitaretab - guitar tabs
Song name
# A B C D E F G H I J K L M N O P Q R S T U V W X Y Z

Charlie Daniels - Long Haired Country Boy tab

harlie Daniels Band
"Long Haired Country Boy"

This is accurate, listen to the song and play a long...  I've been trying to get
this version posted!!!!


INTRO:             
e |-----2-----2--------------------------------------------2-----2--|
B |-----3-----3--------------------------------------------3-----3--|
G |-----2-----2--------------------------------------------2-----2--|
D |--0--0--0--0-----0---3b-0---5-0-3-0--------------0h2-0--0-----0--|
A |-------------0h2---2----------------5-0-3-0--0h2-----------0-----|
E |-----------------------------------------------------------------|


VERSE 1:
D
People say I'm no-good, and crazy as a loon

I get stoned in the morning, I get drunk in the afternoon

Kinda like my old blue tick hound, I like to lay around in the shade

I ain't got no money, but I damn sure got it made
        G                                                D
I ain't askin nobody for nothin, if I can't get it on my own
             A
If you don't like the way I'm livin, you just

e |------------|-------------|-------------|----------2-----2--|
B |------------|-------------|-------------|----------3-----3--|
G |------------|-------------|-------------|----------2-----2--|
D |------------|-------------|-------------|-------0--0-----0--|
A |--3---------|--2-------0--|-------------|-------------0-----|
E |------------|-------------|--3-------1--|-------------------|
    leave this  long-haired     country boy    alone

e |---------------------------------------------2-----2--|
B |---------------------------------------------3-----3--|
G |---------------------------------------------2-----2--|
D |------0---3b-0---5-0-3-0--------------0h2-0--0-----0--|
A |--0h2---2----------------5-0-3-0--0h2-----------0-----|
E |------------------------------------------------------|


VERSE 2:
D
Preacher man talkin on the TV, puttin down the rock n roll

Wants me to send a donation, cause he's worried about my soul

He said, Jesus walked on the water, and I know that is true
[ Tab from: http://www.guitaretab.com/c/charlie-daniels/164169.html ]
But sometimes I think that preacher man, like to do a little walkin too
            G                                                D
But I ain't askin nobody for nothin, if I can't get it on my own
          A   
You don't like the way I'm livin, you just

e |------------|-------------|-------------|----------2-----2--|
B |------------|-------------|-------------|----------3-----3--|
G |------------|-------------|-------------|----------2-----2--|
D |------------|-------------|-------------|-------0--0-----0--|
A |--3---------|--2-------0--|-------------|-------------0-----|
E |------------|-------------|--3-------1--|-------------------|
    leave this  long-haired     country boy    alone

e |---------------------------------------------2-----2--|
B |---------------------------------------------3-----3--|
G |---------------------------------------------2-----2--|
D |------0---3b-0---5-0-3-0--------------0h2-0--0-----0--|
A |--0h2---2----------------5-0-3-0--0h2-----------0-----|
E |------------------------------------------------------|


(Instrumental Break)


VERSE 3:
D
A poor girl wants to marry, and a rich girl wants to flirt

A rich man goes to college and a poor man goes to work

A drunkard wants another drink of wine, and a politician wants a vote

I don't want much of nothin at all, but I will take another toke
        G                                                D
I ain't askin nobody for nothin, if I can't get it on my own
          A
You don't like the way I'm livin, you just

e |------------|-------------|-------------|----------2-----2--|
B |------------|-------------|-------------|----------3-----3--|
G |------------|-------------|-------------|----------2-----2--|
D |------------|-------------|-------------|-------0--0-----0--|
A |--3---------|--2-------0--|-------------|-------------0-----|
E |------------|-------------|--3-------1--|-------------------|
    leave this  long-haired     country boy    alone

e |------------------------------------------2--|
B |------------------------------------------3--|
G |------------------------------------------2--|
D |------0---3b-0---5-0-3-0--------------0h2-0--|
A |--0h2---2----------------5-0-3-0--0h2--------|
E |---------------------------------------------|
Related for Long Haired Country Boy tab
Long Haired Country Boy chords by Charlie Daniels