Song name
# A B C D E F G H I J K L M N O P Q R S T U V W X Y Z

Charlie Parr - Cheap Wine tab

Charlie Parr
Cheap Wine
Album: Rooster
sfc

CAPPO on 3rd

all the notes/chords are in relation to the cappo, (so x+3).


   -0
   -0
E5 -4
   -2
   -2
   -0


Intro

e--------------|-----------|
B--------------|-----------|
G--------------|-----------|
D----4-------4-|-2---------|
A-------2/5----|---0--2----|
E-2------------|---------0-|

e--------------|-----------|
B--------------|-----------|
G--------------|-----------|
D----4-------4-|-2---------|
A-------2/5----|---4--2----|
E-2------------|---------0-|


These chords accompany the above bassline, cycle throught,

Fm, D, A, E5
Tap to rate this tab
 
# A B C D E F G H I J K L M N O P Q R S T U V W X Y Z