Song name
# A B C D E F G H I J K L M N O P Q R S T U V W X Y Z

Charlie Parra - Merry Metal Christmas tab

Artist:Charlie Parra
Song Title:Merry Metal Christmas.Tab
    (incomplete)
this is my first tab.
im not sure if this is the exactly 
but i did my best to it perfect


/ - Slide
^ - Up
T - Finger tapping


D|------------|
A|------------|
F|------------|
C|------------|
G|-15///////3-|
C|------------|


D|--------------|--------------|--------------||-------------------|
A|-----7^-7-5---|-----7^-7-5---|-----9^-9-7---||-12-12-12^-12--7-9-|
F|-4-4--------4-|-4-4--------6-|-6-6--------8-||-------------------|
C|--------------|--------------|--------------||-------------------|
G|--------------|--------------|--------------||-------------------|
C|--------------|--------------|--------------||-------------------|
               
               |-----not sure----------| 
D|-------------------------------12/15-|
A|-----7^-7-5--------------12/14-------|
F|-4-4---------12/14-12/14-------------|
C|-------------------------------------|
G|-------------------------------------|
C|-------------------------------------|
              
              |----not sure----|
D|-------------------------8/5-|
A|-----7^-7-5------8/5-7/5-----|
F|-4-4---------8/5-------------|
C|-----------------------------|
G|-----------------------------|
C|-----------------------------|
                
               |-----not sure-------|                
D|-------------14/10----14/10-------|---------------------|
A|-----9^-9-7--------12-------12-10-|---------------------|
F|-6-6------------------------------|-12T--12-12^-12--7-9-|
C|----------------------------------|---------------------|
G|----------------------------------|---------------------|
C|----------------------------------|---------------------|

D|---------------|-------------------|
A|---------9-7---|-------------------|
F|-7-9-7-------7-|-/7-9-7-9-7-/12-11-|
C|-------9-------|-------------------|
G|---------------|-------------------|
C|---------------|-------------------|
                                not sure
D|-------------------------|----------------|
A|------------------7-5----|-----------8^-8-|
F|----------5-7-5-------7T-|-7-9-7-9-7------|
C|----------------7--------|----------------|
G|-12////3-----------------|----------------|
C|-------------------------|----------------|
                          not sure
D|-----------------|-8/5-----8/5---------|
A|-----------------|-----7/5-------------|
F|-------14^-14-12-|-------------7/5-5-T-|
C|-12-12-----------|---------------------|
G|-----------------|---------------------|
C|-----------------|---------------------|
                           not sure
D|-----------------|-16/12T-------16/12T-------|
A|-----------------|-------15/12T-------16/14T-|
F|-------14^-14-12-|---------------------------|
C|-12-12-----------|---------------------------|
G|-----------------|---------------------------|
C|-----------------|---------------------------|


D|------------------------|
A|-----------------15^ 15-|
F|-------14^-14-12--------|
C|-12-12------------------|
G|------------------------|
C|------------------------|

?????????..

D|--------------------------------------------------------|
A|-/15-13-12----------12-----/15-15-15-17-15--13-12-------|
F|-----------14-12-14----12-------------------------14-12-|
C|--------------------------------------------------------|
G|--------------------------------------------------------|
C|--------------------------------------------------------|

\m/   \m/
 \(+.+)/ by:PHLP RYS 
Tap to rate this tab
 
# A B C D E F G H I J K L M N O P Q R S T U V W X Y Z