Song name
# A B C D E F G H I J K L M N O P Q R S T U V W X Y Z

Chase Coy - Airplanes tab

The other versions were only a small part of the song. This is the whole song and 
my first tab. I hope it is good. It is long but detailed lol.
No Capo 

Repeat 5x's 
e|-------------------------------------------------------|
B|-------------------------------------------------------|
G|-7-----6-----4-----2-----------------------------------|
D|--0-----0-----0-----0----------------------------------|
A|-0-----0-----0-----0-----------------------------------|
E|-------------------------------------------------------|

e|-------------------------------------------------------|
B|-------------------------------------------------------|
G|-7-----6-----4-----2-----4-----4-----4-----6-----------|
D|--0-----0-----0-----0-----0-----0-----0----------------|
A|-0-----0-----0-----0-----0-----0-----0-----0-----------|
E|-------------------------------------------------------|

Repeat Above 

e|-------------------------------------------------------|
B|-------------------------------------------------------|
G|-7-----6-----4-----2-----------------------------------|
D|--0-----0-----0-----0----------------------------------|
A|-0-----0-----0-----0-----------------------------------|
E|-------------------------------------------------------|
 
e|-------------------------------------------------------|
B|-------------------------------------------------------|
G|-7-----6-----4-----2-----4-----4-----4-----4-----6-----|
D|--0-----0-----0-----0-----0-----0-----0-----0----------|
A|-0-----0-----0-----0-----0-----0-----0-----0-----0-----|
E|-------------------------------------------------------|

e|-------------------------------------------------------|
B|-------------------------------------------------------|
G|-11----9-----7-----6-----7-----9----11-----9-----7-----|
D|---0----0-----0-----------------------0-----0-----0----|
A|-0-----0-----0-----0-----0-----0----0------0-----0-----|
E|-------------------------------------------------------|

e|-------------------------------------------------------|
B|-------------------------------------------------------|
G|-7-----4-----4----4-----4-----6------------------------|
D|--0-----0-----0----0-----0-----------------------------|
A|-0-----0-----0----0-----0-----0------------------------|
E|-------------------------------------------------------|

e|-------------------------------------------------------|
B|-------------------------------------------------------|
G|-11-----9-----7-----7-----6----6-----6-----6-----------|
D|---0-----0-----0-----0-----0----0-----0-----0----------|
A|-0------0-----0-----0-----0----0-----0-----0-----------|
E|-------------------------------------------------------|

e|-------------------------------------------------------|
B|-------------------------------------------------------|
G|-4-----4-----4-----4-----6-----6-----6-----6-----------|
D|--0-----0-----0-----0-----0-----0-----0-----0----------|
A|-0-----0-----0-----0-----0-----0-----0-----0-----------|
E|-------------------------------------------------------|


e|-------------------------------------------------------|
B|-------------------------------------------------------|
G|-11-----9-----7-----7-----6----6-----6-----6-----------|
D|---0-----0-----0-----0-----0----0-----0-----0----------|
A|-0------0-----0-----0-----0----0-----0-----0-----------|
E|-------------------------------------------------------|

e|-------------------------------------------------------|
B|-------------------------------------------------------|
G|-4-----4-----4-----4-----6-----------------------------|
D|--0-----0-----0-----0----------------------------------|
A|-0-----0-----0-----0-----0-----------------------------|
E|-------------------------------------------------------|

Repeat 3x's
e|-------------------------------------------------------|
B|-------------------------------------------------------|
G|-7-----6-----4-----2-----------------------------------|
D|--0-----0-----0-----0----------------------------------|
A|-0-----0-----0-----0-----------------------------------|
E|-------------------------------------------------------|

e|-------------------------------------------------------|
B|-------------------------------------------------------|
G|-7-----6-----4-----2-----4-----4-----4-----6-----------|
D|--0-----0-----0-----0-----0-----0-----0----------------|
A|-0-----0-----0-----0-----0-----0-----0-----0-----------|
E|-------------------------------------------------------|

Repeat Above 2x

e|-------------------------------------------------------|
B|-------------------------------------------------------|
G|-7-----6-----4-----2-----------------------------------|
D|--0-----0-----0-----0----------------------------------|
A|-0-----0-----0-----0-----------------------------------|
E|-------------------------------------------------------|

e|-------------------------------------------------------|
B|-------------------------------------------------------|
G|-7-----6-----4-----2-----4-----4-----4-----4-----6-----|
D|--0-----0-----0-----0-----0-----0-----0-----0----------|
A|-0-----0-----0-----0-----0-----0-----0-----0-----0-----|
E|-------------------------------------------------------|

e|-------------------------------------------------------|
B|-------------------------------------------------------|
G|-11----9-----7-----6-----7-----9----11-----9-----7-----|
D|---0----0-----0-----------------------0-----0-----0----|
A|-0-----0-----0-----0-----0-----0----0------0-----0-----|
E|-------------------------------------------------------|

e|-------------------------------------------------------|
B|-------------------------------------------------------|
G|-7-----4-----4----4-----4-----6------------------------|
D|--0-----0-----0----0-----0-----------------------------|
A|-0-----0-----0----0-----0-----0------------------------|
E|-------------------------------------------------------|


e|-------------------------------------------------------|
B|-------------------------------------------------------|
G|-11-----9-----7-----7-----6----6-----6-----6-----------|
D|---0-----0-----0-----0-----0----0-----0-----0----------|
A|-0------0-----0-----0-----0----0-----0-----0-----------|
E|-------------------------------------------------------|


e|-------------------------------------------------------|
B|-------------------------------------------------------|
G|-4-----4-----4-----4-----6-----6-----6-----6-----------|
D|--0-----0-----0-----0-----0-----0-----0-----0----------|
A|-0-----0-----0-----0-----0-----0-----0-----0-----------|
E|-------------------------------------------------------|

e|-------------------------------------------------------|
B|-------------------------------------------------------|
G|-11-----9-----7-----7-----6----6-----6-----6-----------|
D|---0-----0-----0-----0-----0----0-----0-----0----------|
A|-0------0-----0-----0-----0----0-----0-----0-----------|
E|-------------------------------------------------------|


e|-------------------------------------------------------|
B|-------------------------------------------------------|
G|-4-----4-----4-----4-----6-----------------------------|
D|--0-----0-----0-----0----------------------------------|
A|-0-----0-----0-----0-----0-----------------------------|
E|-------------------------------------------------------|

e|-------------------------------------------------------|
B|-------------------------------------------------------|
G|-7-----6-----4-----2-----------------------------------|
D|--0-----0-----0-----0----------------------------------|
A|-0-----0-----0-----0-----------------------------------|
E|-------------------------------------------------------|

e|-------------------------------------------------------|
B|-------------------------------------------------------|
G|-7-----6-----7-----------------------------------------|
D|--0-----0----------------------------------------------|
A|-0-----0-----0-----------------------------------------|
E|-------------------------------------------------------|



The End :)
Tap to rate this tab
 
# A B C D E F G H I J K L M N O P Q R S T U V W X Y Z