Song name
# A B C D E F G H I J K L M N O P Q R S T U V W X Y Z

Chase Coy - Airplanes tab

-------------------------------------------------------------------------------
			     SONG NAME - Band Name
-------------------------------------------------------------------------------
Tabbed by:Drew Gribble
Email:http://www.facebook.com/?ref=home#!/pages/Drew-Gribble/114874725198860?ref=ts
http://www.myspace.com/aletterforher

Tuning:Standard

Okay, so the tab on here is correct except for one part that will make you think it's 
wrong. If you play along to the song, this is how it sounds. Note that the chorus isn't 
but it's fairly easy to figure out.

Repeat 5x's
e|-------------------------------------------------------|
B|-------------------------------------------------------|
G|-7-----6-----4-----2-----------------------------------|
D|--0-----0-----0-----0----------------------------------|
A|-0-----0-----0-----0-----------------------------------|
E|-------------------------------------------------------|

Repeat 1x
e|-------------------------------------------------------|
B|-------------------------------------------------------|
G|-7-----6-----4-----2-----4-----4-----4-----4-----6-----|
D|--0-----0-----0-----0-----0-----0-----0-----0-----0----|
A|-0-----0-----0-----0-----0-----0-----0-----0-----0-----|
E|-------------------------------------------------------|
Tap to rate this tab
 
# A B C D E F G H I J K L M N O P Q R S T U V W X Y Z