Song name
# A B C D E F G H I J K L M N O P Q R S T U V W X Y Z

Chef Special - Lie To Me tab

Chef's Special - Lie to me

Standad Tuning


Intro

E|-----4--6--7--6--4-----------------------------|
B|--4-----------------4--------4--5--4-----------|
G|-----------------------6--4--------------------|
D|-----------------------------------------------|
A|-----------------------------------------------|
E|--------------------------------------7--6--4--|



E|-----4--6--7--6--4--------------------------------------|
B|--4-----------------4--------4--5--4--4--5--7--4--------|
G|-----------------------6--4-----------------------6--4--|
D|--------------------------------------------------------|
A|--------------------------------------------------------|
E|--------------------------------------------------------|


Verse 1

G#m                     B                     B A# G#m
You were busy with your phone in the bathroom
G#m                     B               B A# G#m
And lately I can smell a strange perfume
G#m                     B               B A# G#m
You came home on a midnight hour
G#m                     B               B A#
You were heading straight for the shower

C#m                B
        And when I ask you why
C#m                        B
        You donít look me in the eye, no
C#m                    B
        Trying to come up with another lie
A#
        But I know yes I know that


Chorus

B              C#m        G#
I know my baby lie to me
             F#
Itís hard to live with
C#m         E
But I canít quit it
B              C#m        G#
I know my baby lie to me
             F#
But donít you worry
C#m         E
Sheíll be sorry
B              F#        E
I know my baby lie to me
                    C#m
And I canít seem to cope
E
So secretly I keep a little hope


Verse 2

G#m                B                    B A# G#m
I saw you payed an hotel for a few days
G#m                      B                       B A# G#m
You told me youíre gonna stay at a friendís place
G#m                              B               B A# G#m
You donít know that I know but I know long time
G#m                         B                     B A#
That you sleep with someone else and your not mine

C#m                     B
I know that I should be furious
C#m                        B
But I just want the two of us
C#m                         B
To be like nothingís ever changed
A#
But I know yes I knot that


Chorus

B              C#m        G#
I know my baby lie to me
             F#
Itís hard to live with
C#m         E
But I canít quit it
B              C#m        G#
I know my baby lie to me
             F#
But donít you worry
C#m         E
Sheíll be sorry
B              F#        E
I know my baby lie to me
                              C#m
Should tell him/her that were done
E
But I still think about how it begun


I recognize the old times in your face
Wishing to go back to better days
Back when you longed for me alone
And your embrace still felt like home


G#m     B                B A# G#m
I know my baby lie to me
But I want him/her to cry to me
Tap to rate this tab
# A B C D E F G H I J K L M N O P Q R S T U V W X Y Z