Song name
# A B C D E F G H I J K L M N O P Q R S T U V W X Y Z

Chemical Brothers - Hoops tab

Hoops by The Chemical Brothers, figured out and tabbed by Joe Cancellare.

Main Riff - it varies:

e---------------------------------|
b---------------------------------|
g---------------------------------|
d---------------------------------|
a-0-0-0-0-0-0-3-3---------------3-|
E-----------------1-1-1-1-1-1-1---|

Guitar Solo:

e---------------------------------------------------------5---5-|
b-------------------------------------------------5---5-8---8---|
g---------------------------------------5-5---5-7---7-----------|
d-------------------------------5-7-5-7-----7-------------------|
a-------------3-5-5-3-5-7-7-5-7---------------------------------|
E-3-5-5-3-5-3---------------------------------------------------|

e-5-------------------------------------------------------------|
b---8-5---5-----------------------------------------------------|
g-------7---7-5-7-5-7-5---5-------------------------------------|
d-----------------------9---9-7-5-------------------------------|
a---------------------------------3-5-5-3-5-7-5-7-7-5-3-2-------|
E---------------------------------------------------------3-5-5-|

Additional riff - listen for it:

e-8-5-------------------------|
b-----8-5-8-5-----------------|
g-------------7-5-7-5---------|
d---------------------7-5-7-7-|
a-----------------------------|
E-----------------------------|

There's another, but I can't remember at the moment. Just use the notes from the solo 
"additional riff" for the other riff(s).
Tap to rate this tab
# A B C D E F G H I J K L M N O P Q R S T U V W X Y Z