Song name
# A B C D E F G H I J K L M N O P Q R S T U V W X Y Z

Cherri Bomb - Already Dead tab

----------------------------------------------------------------------------------
                         Already Dead - Cherri Bomb
----------------------------------------------------------------------------------

Tuning: Standard

Haven't worked out the solo yet.

Intro
  H      E Q.      E E E E E E Q     Q   Q   E Q.      E E E E E E E E
|----------------|-----------------|-----------------|------------------|
|----------------|-----------------|-----------------|------------------|
|----------------|-----------------|-----------------|------------------|
|-7------7-7-----|-7-7-7-7-7-7-7---|-7---7---7-7-----|-7-7-7-7-7-7-7-7--|
|-5------5-5-----|-5-5-5-5-5-5-5---|-5---5---5-5-----|-5-5-5-5-5-5-5-5--|
|----------------|-----------------|-----------------|------------------|
  .      . .       . . . . . . .     .   .   . .       . . . . . . . .

  H       E Q.       E E E E E E Q      Q   Q   E Q.      E E E E E E E E
|------------------|------------------|------------------|------------------|
|------------------|------------------|------------------|------------------|
|-7-------7-7------|-7-7-7-7-7-7-7----|-7---7---7-7------|-5-5-5-5-3-3-3-3--|
|-7-------7-7------|-7-7-7-7-7-7-7----|-7---7---7-7------|-5-5-5-5-3-3-3-3--| X2
|-5-------5-5------|-5-5-5-5-5-5-5----|-5---5---5-5------|-3-3-3-3-1-1-1-1--|
|------------------|------------------|------------------|------------------|

Verse
  H       E Q.       E E E E E E Q      Q   Q   E Q.      E E E E E E E E
|------------------|------------------|------------------|------------------|
|------------------|------------------|------------------|------------------|
|-7-------7-7------|-7-7-7-7-7-7-7----|-7---7---7-7------|-5-5-5-5-3-3-3-3--|
|-7-------7-7------|-7-7-7-7-7-7-7----|-7---7---7-7------|-5-5-5-5-3-3-3-3--| X2
|-5-------5-5------|-5-5-5-5-5-5-5----|-5---5---5-5------|-3-3-3-3-1-1-1-1--|
|------------------|------------------|------------------|------------------|

  E E E E E E E E    E E E E E E E E    E E E E E E E E    E E E E E E E E   
|------------------|------------------|------------------|------------------|
|------------------|------------------|------------------|------------------|
|------------------|------------------|------------------|------------------|
|------------------|------------------|------------------|------------------|
|-3-3-3-3-3-3-3-3--|-3-3-3-3-3-3-3-3--|-1-1-1-1-1-1-1-1--|-0-0-0-0-0-0-0-0--|
|------------------|------------------|------------------|------------------|
  . . . . . . . .    . . . . . . . .    . . . . . . . .    . . . . . . . .  

  H       E Q.       E E E E E E Q     Q   Q   E Q.       E E E E E E E E
|------------------|------------------|------------------|------------------|
|------------------|------------------|------------------|------------------|
|-7-------7-7------|-7-7-7-7-7-7-7----|-10--10--1010-----|-5-5-5-5-3-3-3-3--|
|-7-------7-7------|-7-7-7-7-7-7-7----|-10--10--1010-----|-5-5-5-5-3-3-3-3--|
|-5-------5-5------|-5-5-5-5-5-5-5----|-8---8---8-8------|-3-3-3-3-1-1-1-1--|
|------------------|------------------|------------------|------------------|


  H       E Q.       E E E E E E Q      Q   Q   E Q.       E E E E E E E E
|------------------|------------------|------------------|------------------|
|------------------|------------------|------------------|------------------|
|-7-------7-7------|-7-7-7-7-7-7-7----|-7---7---7-7------|-5-5-5-5-3-3-3-3--|
|-7-------7-7------|-7-7-7-7-7-7-7----|-7---7---7-7------|-5-5-5-5-3-3-3-3--| X2
|-5-------5-5------|-5-5-5-5-5-5-5----|-5---5---5-5------|-3-3-3-3-1-1-1-1--|
|------------------|------------------|------------------|------------------|

Chorus
  E E E E E E E E    E E E E E E E E    E E E E E E E E    E E E E E E E E
|------------------|------------------|------------------|------------------|
|------------------|------------------|------------------|------------------|
|-3-3-3-3-3-3-3-3--|-5-5-5-5-5-5-5-5--|-7-7-7-7-7-7-7-7--|-5-5-5-5-5-5-5-5--|
|-3-3-3-3-3-3-3-3--|-5-5-5-5-5-5-5-5--|-7-7-7-7-7-7-7-7--|-5-5-5-5-5-5-5-5--|
|-1-1-1-1-1-1-1-1--|-3-3-3-3-3-3-3-3--|-5-5-5-5-5-5-5-5--|-3-3-3-3-3-3-3-3--|
|------------------|------------------|------------------|------------------|

  E E E E E E E E    E E E E E E E E  
|------------------|------------------|
|------------------|------------------|
|-3-3-3-3-5-5-5-5--|-7-7-7-7-10101010-|
|-3-3-3-3-5-5-5-5--|-7-7-7-7-10101010-| X2
|-1-1-1-1-3-3-3-3--|-5-5-5-5-8-8-8-8--|
|------------------|------------------|

  E E E E E E E E    E E E E E E E E    E E E E E E E E    E E E E E E E E
|------------------|------------------|------------------|------------------|
|------------------|------------------|------------------|------------------|
|-3-3-3-3-3-3-3-3--|-5-5-5-5-5-5-5-5--|-7-7-7-7-7-7-7-7--|-5-5-5-5-5-5-5-5--|
|-3-3-3-3-3-3-3-3--|-5-5-5-5-5-5-5-5--|-7-7-7-7-7-7-7-7--|-5-5-5-5-5-5-5-5--|
|-1-1-1-1-1-1-1-1--|-3-3-3-3-3-3-3-3--|-5-5-5-5-5-5-5-5--|-3-3-3-3-3-3-3-3--|
|------------------|------------------|------------------|------------------|

  H      E Q.      E E E E E E Q     Q   Q   E Q.      E E E E E E E E
|----------------|-----------------|-----------------|------------------|
|----------------|-----------------|-----------------|------------------|
|-7------7-7-----|-7-7-7-7-7-7-7---|-7---7---7-7-----|-7-7-7-7-7-7-7-7--|
|-7------7-7-----|-7-7-7-7-7-7-7---|-7---7---7-7-----|-7-7-7-7-7-7-7-7--|
|-5------5-5-----|-5-5-5-5-5-5-5---|-5---5---5-5-----|-5-5-5-5-5-5-5-5--|
|----------------|-----------------|-----------------|------------------|

Verse

Chorus

Breakdown
  E E E E E E E E    E E E E E E E E    E E E E E E E E    E E E E E E E E
|------------------|------------------|------------------|------------------|
|------------------|------------------|------------------|------------------|
|------------------|------------------|------------------|------------------|
|------------------|------------------|------------------|------------------|
|-5-5-7-7-8-8-8-8--|-3-3-5-5-2-2-2-2--|-5-5-7-7-8-8-8-8--|-3-3-5-5-1-1-1-1--|
|------------------|------------------|------------------|------------------|
  . . . . . . . .    . . . . . . . .    . . . . . . . .    . . . . . . . .

  E E E E E E E E    E E E E E E E E    E E E E E E E E    E E E E E E E E
|------------------|------------------|------------------|------------------|
|------------------|------------------|------------------|------------------|
|------------------|------------------|------------------|------------------|
|------------------|------------------|------------------|------------------| 
|-5-5-7-7-8-8-8-8--|-3-3-5-5-2-2-2-2--|-1-1-1-1-1-1-1-1--|-0-0-0-0-0-0-0-0--|
|------------------|------------------|------------------|------------------|
  . . . . . . . .    . . . . . . . .    . . . . . . . .    . . . . . . . .

  E E E E E E E E    E E E E E E E E    E E E E E E E E    E E E E E E E E
|------------------|------------------|------------------|------------------|
|------------------|------------------|------------------|------------------|
|------------------|------------------|------------------|------------------|
|------------------|------------------|------------------|------------------|
|-5-5-7-7-8-8-8-8--|-3-3-5-5-2-2-2-2--|-5-5-7-7-8-8-8-8--|-3-3-5-5-1-1-1-1--|
|------------------|------------------|------------------|------------------|

  E E E E E E E E    E E E E E E E E    E E E E E E E E    E E E E E E E E
|------------------|------------------|------------------|------------------|
|------------------|------------------|------------------|------------------|
|------------------|------------------|------------------|------------------|
|------------------|------------------|------------------|------------------| 
|-5-5-7-7-8-8-8-8--|-3-3-5-5-2-2-2-2--|-1-1-1-1-1-1-1-1--|-0-0-0-0-0-0-0-0--|
|------------------|------------------|------------------|------------------|

Solo
  E E E E E E E E    E E E E E E E E    E E E E E E E E    E E E E E E E E
|------------------|------------------|------------------|------------------|
|------------------|------------------|------------------|------------------|
|------------------|------------------|------------------|------------------|
|------------------|------------------|------------------|------------------|
|-5-5-7-7-8-8-8-8--|-3-3-5-5-2-2-2-2--|-5-5-7-7-8-8-8-8--|-3-3-5-5-1-1-1-1--|
|------------------|------------------|------------------|------------------|

  E E E E E E E E    E E E E E E E E    E E E E E E E E    E E E E E E E E
|------------------|------------------|------------------|------------------|
|------------------|------------------|------------------|------------------|
|------------------|------------------|------------------|------------------|
|------------------|------------------|------------------|------------------| 
|-5-5-7-7-8-8-8-8--|-3-3-5-5-2-2-2-2--|-1-1-1-1-1-1-1-1--|-0-0-0-0-0-0-0-0--|
|------------------|------------------|------------------|------------------|

Chorus

Duration Ledgend
----------------
W - whole
H - half
Q - quarter
E - 8th
S - 16th
T - 32nd
X - 64th
. - note dotted
Tap to rate this tab
# A B C D E F G H I J K L M N O P Q R S T U V W X Y Z