Song name
# A B C D E F G H I J K L M N O P Q R S T U V W X Y Z

Chevelle - Send The Pain Below tab

Chevelle - send the pain below
tabbed by - the_darkwin@yahoo.com

dropped B - B F# B E G# C#
(dropped D then 1 1/2 steps down)

intro (distortion)
|---------------------------------------------------------------------------|
|---------------------------------------------------------------------------|
|--14---14-14---14-14-14-14-14-14--11--11-11-11--11-11-11-11-11-11-11-------|
|---x----x--x----x--x--x--x--x--x---9---9--9--9---9--9--9--9--9--9--9--0-0--|
|--12---12-12---12-12-12-12-12-12---9---9--9--9---9--9--9--9--9--9--9--0-0--|
|---0----0--0----0--0--0--0--0--0---9---9--9--9---9--9--9--9--9--9--9--0-0--|

|---------------------------------------------------------------------------|
|---------------------------------------------------------------------------|
|--11--11-11--11-11-11-11-11-11-11-11-11-11--7--7-7--7-7-7-7-7-7-7-7-7------|
|---x---x--x---9--9--9--9--9--9--9--9--9--9--5--5-5--5-5-5-5-5-5-5-5-5-0-0--|
|---9---9--9---9--9--9--9--9--9--9--9--9--9--5--5-5--5-5-5-5-5-5-5-5-5-0-0--|
|---0---0--0---0--0--0--0--0--0--0--0--0--0--5--5-5--5-5-5-5-5-5-5-5-5-0-0--|

i liked having hurt.....so send the pain below where i need it.
|----------------------------------------------------------------|
|----------------------------------------------------------------|
|--11--------------*11----------------11--------------*11--------|
|---x----------------------------------x-------------------------|
|---9----------------------------------9-------------------------|
|---0----------------------------------0-------------------------|
let the chord ring then strike the next note. what Pete does here 
is he strikes the last three stings but at the headstock to produce
and artificial harmonic, feedback sounding note....but the *11 will do.

verse (clean) ...listen for strumming
|--------------------------------------------------------------------------|
|--------------------------------------------------------------------------|
|--11--11-11--11-11-11-11-11-11--11-11--11-11-11-11--11-11-11-11-11----9---|
|---x---x--x---x--x--x--x--x--x---x--x---x--x--x--x---x--x--x--x--x----x---|
|---9---9--9---9--9--9--9--9--9---9--9---9--9--9--9---9--9--9--9--9----7---|
|--------------------------------------------------------------------------|

pre-chorus same as intro but clean then chorus hits and distortion kicks in.

bridge (clean 1x then distortion)
|------------------------------------------------------------------|
|------------------------------------------------------------------|
|------------------------------------------------------------------|
|--0-2-2-2-2-0---0-0-5-5-5-5-0-0-0--0-2-2-2-2-0---0-0-5-5-5--5--4--|
|--0-2-2-2-2-0---0-0-5-5-5-5-0-0-0--0-2-2-2-2-0---0-0-5-5-5--5--4--|
|--0-2-2-2-2-0---0-0-5-5-5-5-0-0-0--0-2-2-2-2-0---0-0-5-5-5--5--4--|

breakdown in bridge...tremolo pick the note and hold for 4/4 count then
bend 1/4 towards the end and continue with bridge ( part 1 )
towards the end of the bridge hold the note while tremolo pick for two 
4/4 counts and slide down the neck and head to outro chorus 
 ( part 1 )             ( part 2 )
|-------------------||--------------------------------|
|-------------------||--------------------------------|
|-------------------||--------------------------------|
|-------------------||--------------------------------|
|-------------------||--------------------------------|
|---2~~~~~~(2^)~~---||---2~~~~~~~~~~~~~~~~~~(2)\~~~---|

outro chorus is same as chorus but 
finish with leting this note ring
|----------|
|----------|
|--11------|
|---x------|
|---9------|
|---0------|

intro 1x
verse 4x
pre-chorus 2x
chorus 3x
verse 4x
pre-chorus 2x
chorus 3x
bridge clean 1x
bridge distorted 1x
then part 1
brdige distorted 4x
then part 2
outro chorus 4x
then let the last note ring

thats it enjoy it. if you have the cd, in my opinion it rocks...also try to 
check out these guys live...i did in Bakersfield, Ca and they are flawless live
it's like the cd but better. well keep rockin the songs. 
comments and suggestions welcomed.
Tap to rate this tab
# A B C D E F G H I J K L M N O P Q R S T U V W X Y Z