Song name
# A B C D E F G H I J K L M N O P Q R S T U V W X Y Z

Chevelle - Indifference tab

Indifference is a bonus song on Chevelle's new album Hats Off To The Bull if you 
buy it from itunes.

Tuning: Each string a whole step down. D G C F A D.


Your pretending,                 Fooled us all.
-----------------------------------------------------------------------------|
-----------------------------------------------------------------------------|
-6-6-6-6-6-6-6-6-6-6-6-6-6-6-6-6---------------------------------------------|
-6-6-6-6-6-6-6-6-6-6-6-6-6-6-6-6-9-9-9-9-9-9-9-9-9-9-9-9-9-9-9-9-------------|
-4-4-4-4-4-4-4-4-4-4-4-4-4-4-4-4-9-9-9-9-9-9-9-9-9-9-9-9-9-9-9-9-------------|
---------------------------------7-7-7-7-7-7-7-7-7-7-7-7-7-7-7-7-------------|

Optimistic,                      Delusional.
-----------------------------------------------------------------------------|
-----------------------------------------------------------------------------|
-9-9-9-9-9-9-9-9-9-9-9-9-9-9-9-9-4-4-4-4-4-4-4-4-4-4-4-4-4-4-4-4-------------|
-9-9-9-9-9-9-9-9-9-9-9-9-9-9-9-9-4-4-4-4-4-4-4-4-4-4-4-4-4-4-4-4-------------|
-7-7-7-7-7-7-7-7-7-7-7-7-7-7-7-7-2-2-2-2-2-2-2-2-2-2-2-2-2-2-2-2-------------|
-----------------------------------------------------------------------------|

Hyperactive,                     And so it showed.
-----------------------------------------------------------------------------|
-----------------------------------------------------------------------------|
-6-6-6-6-6-6-6-6-6-6-6-6-6-6-6-6---------------------------------------------|
-6-6-6-6-6-6-6-6-6-6-6-6-6-6-6-6-9-9-9-9-9-9-9-9-9-9-9-9-9-9-9-9-------------|
-4-4-4-4-4-4-4-4-4-4-4-4-4-4-4-4-9-9-9-9-9-9-9-9-9-9-9-9-9-9-9-9-------------|
---------------------------------7-7-7-7-7-7-7-7-7-7-7-7-7-7-7-7-------------|

It's time to measure,            The immeasurable.
-----------------------------------------------------------------------------|
-----------------------------------------------------------------------------|
-9-9-9-9-9-9-9-9-9-9-9-9-9-9-9-9-4-4-4-4-4-4-4-4-4-4-4-4-4-4-4-4-------------|
-9-9-9-9-9-9-9-9-9-9-9-9-9-9-9-9-4-4-4-4-4-4-4-4-4-4-4-4-4-4-4-4-------------|
-7-7-7-7-7-7-7-7-7-7-7-7-7-7-7-7-2-2-2-2-2-2-2-2-2-2-2-2-2-2-2-2-------------|
-----------------------------------------------------------------------------|

Our indifference
-----------------------------------------------------------------------------|
-----------------------------------------------------------------------------|
-6-6-6-6-6-6-6-6-6-6-6-6-6-6-6-6---------------------------------------------|
-6-6-6-6-6-6-6-6-6-6-6-6-6-6-6-6-9-9-9-9-9-9-9-9-9-9-9-9-9-9-9-9-------------|
-4-4-4-4-4-4-4-4-4-4-4-4-4-4-4-4-9-9-9-9-9-9-9-9-9-9-9-9-9-9-9-9-------------|
---------------------------------7-7-7-7-7-7-7-7-7-7-7-7-7-7-7-7-------------|

grows,
------------------------------------------------------------------------------|
------------------------------------------------------------------------------|
-9-9-9-9-9-9-9-9-9-9-9-9-9-9-9-9-11-11-11-11-11-11-11-11-11-11-11-11-11-11-11-|
-9-9-9-9-9-9-9-9-9-9-9-9-9-9-9-9-11-11-11-11-11-11-11-11-11-11-11-11-11-11-11-|
-7-7-7-7-7-7-7-7-7-7-7-7-7-7-7-7-9--9--9--9--9--9--9--9--9--9--9--9--9--9--9--|
------------------------------------------------------------------------------|

From the common evil
-----------------------------------------------------------------------------|
-----------------------------------------------------------------------------|
-6-6-6-6-6-6-6-6-6-6-6-6-6-6-6-6---------------------------------------------|
-6-6-6-6-6-6-6-6-6-6-6-6-6-6-6-6-9-9-9-9-9-9-9-9-9-9-9-9-9-9-9-9-------------|
-4-4-4-4-4-4-4-4-4-4-4-4-4-4-4-4-9-9-9-9-9-9-9-9-9-9-9-9-9-9-9-9-------------|
---------------------------------7-7-7-7-7-7-7-7-7-7-7-7-7-7-7-7-------------|

known.
------------------------------------------------------------------------------|
------------------------------------------------------------------------------|
-9-9-9-9-9-9-9-9-9-9-9-9-9-9-9-9-11-11-11-11-11-11-11-11-11-11-11-11-11-11-11-|
-9-9-9-9-9-9-9-9-9-9-9-9-9-9-9-9-11-11-11-11-11-11-11-11-11-11-11-11-11-11-11-|
-7-7-7-7-7-7-7-7-7-7-7-7-7-7-7-7-9--9--9--9--9--9--9--9--9--9--9--9--9--9--9--|
------------------------------------------------------------------------------|

The future's made out,           Beautiful.
-----------------------------------------------------------------------------|
-----------------------------------------------------------------------------|
-6-6-6-6-6-6-6-6-6-6-6-6-6-6-6-6---------------------------------------------|
-6-6-6-6-6-6-6-6-6-6-6-6-6-6-6-6-9-9-9-9-9-9-9-9-9-9-9-9-9-9-9-9-------------|
-4-4-4-4-4-4-4-4-4-4-4-4-4-4-4-4-9-9-9-9-9-9-9-9-9-9-9-9-9-9-9-9-------------|
---------------------------------7-7-7-7-7-7-7-7-7-7-7-7-7-7-7-7-------------|

Design suggesting,               No hints to God.
-----------------------------------------------------------------------------|
-----------------------------------------------------------------------------|
-9-9-9-9-9-9-9-9-9-9-9-9-9-9-9-9-4-4-4-4-4-4-4-4-4-4-4-4-4-4-4-4-------------|
-9-9-9-9-9-9-9-9-9-9-9-9-9-9-9-9-4-4-4-4-4-4-4-4-4-4-4-4-4-4-4-4-------------|
-7-7-7-7-7-7-7-7-7-7-7-7-7-7-7-7-2-2-2-2-2-2-2-2-2-2-2-2-2-2-2-2-------------|
-----------------------------------------------------------------------------|


A line to fathom the unfathomable,
-----------------------------------------------------------------------------|
-----------------------------------------------------------------------------|
-6-6-6-6-6-6-6-6-6-6-6-6-6-6-6-6---------------------------------------------|
-6-6-6-6-6-6-6-6-6-6-6-6-6-6-6-6-9-9-9-9-9-9-9-9-9-9-9-9-9-9-9-9-------------|
-4-4-4-4-4-4-4-4-4-4-4-4-4-4-4-4-9-9-9-9-9-9-9-9-9-9-9-9-9-9-9-9-------------|
---------------------------------7-7-7-7-7-7-7-7-7-7-7-7-7-7-7-7-------------|

And swear to find that certain pressure point.
-----------------------------------------------------------------------------|
-----------------------------------------------------------------------------|
-9-9-9-9-9-9-9-9-9-9-9-9-9-9-9-9-4-4-4-4-4-4-4-4-4-4-4-4-4-4-4-4-------------|
-9-9-9-9-9-9-9-9-9-9-9-9-9-9-9-9-4-4-4-4-4-4-4-4-4-4-4-4-4-4-4-4-------------|
-7-7-7-7-7-7-7-7-7-7-7-7-7-7-7-7-2-2-2-2-2-2-2-2-2-2-2-2-2-2-2-2-------------|
-----------------------------------------------------------------------------|

Our indifference,
-----------------------------------------------------------------------------|
-----------------------------------------------------------------------------|
-6-6-6-6-6-6-6-6-6-6-6-6-6-6-6-6---------------------------------------------|
-6-6-6-6-6-6-6-6-6-6-6-6-6-6-6-6-9-9-9-9-9-9-9-9-9-9-9-9-9-9-9-9-------------|
-4-4-4-4-4-4-4-4-4-4-4-4-4-4-4-4-9-9-9-9-9-9-9-9-9-9-9-9-9-9-9-9-------------|
---------------------------------7-7-7-7-7-7-7-7-7-7-7-7-7-7-7-7-------------|

Grows.
------------------------------------------------------------------------------|
------------------------------------------------------------------------------|
-9-9-9-9-9-9-9-9-9-9-9-9-9-9-9-9-11-11-11-11-11-11-11-11-11-11-11-11-11-11-11-|
-9-9-9-9-9-9-9-9-9-9-9-9-9-9-9-9-11-11-11-11-11-11-11-11-11-11-11-11-11-11-11-|
-7-7-7-7-7-7-7-7-7-7-7-7-7-7-7-7-9--9--9--9--9--9--9--9--9--9--9--9--9--9--9--|
------------------------------------------------------------------------------|

Like the common evil,
-----------------------------------------------------------------------------|
-----------------------------------------------------------------------------|
-6-6-6-6-6-6-6-6-6-6-6-6-6-6-6-6---------------------------------------------|
-6-6-6-6-6-6-6-6-6-6-6-6-6-6-6-6-9-9-9-9-9-9-9-9-9-9-9-9-9-9-9-9-------------|
-4-4-4-4-4-4-4-4-4-4-4-4-4-4-4-4-9-9-9-9-9-9-9-9-9-9-9-9-9-9-9-9-------------|
---------------------------------7-7-7-7-7-7-7-7-7-7-7-7-7-7-7-7-------------|

Known,                           Held down by words.
-----------------------------------------------------------------------------|
-----------------------------------------------------------------------------|
-9-9-9-9-9-9-9-9-9-9-9-9-9-9-9-9-11-11-11-11-11-11-11-11-11-11-11-11-11-11-4-|
-9-9-9-9-9-9-9-9-9-9-9-9-9-9-9-9-11-11-11-11-11-11-11-11-11-11-11-11-11-11-4-|
-7-7-7-7-7-7-7-7-7-7-7-7-7-7-7-7-9--9--9--9--9--9--9--9--9--9--9--9--9--9--2-|
-----------------------------------------------------------------------------|
Tap to rate this tab
 
# A B C D E F G H I J K L M N O P Q R S T U V W X Y Z