Song name
# A B C D E F G H I J K L M N O P Q R S T U V W X Y Z

Circle Jerks - The Crowd tab

I saw the other tab for this but it didnt include the solo so i thought id show you how 
play it my way and add the solo:)

The Circle Jerks
The Crowd


Verse (figure out the strumming its pretty basic)

E---------------|
B---------------|
G----------5----|
D-5--9--7--5----|
A-5--9--7--3----|
E-3--7--5-------|


Chorus

E---------------|
B---------------|
G--9--7--5------|
D--9--7--5------|
A--7--5--3------|
E---------------|


Solo riff (I like to use

E-----------------------|
B-------------5/8-------| On the last time of this riff(The 4th time)dont
G----4-2-4/5------9\7---| play the last 4 notes, hold 5th fret,G string
D--5--------------------| until the begging on the last chorus
A-----------------------|
E-----------------------|

-Song order-
drum intro 2x
verse      6x
chorus     3x
verse      6x
chorus     3x
solo       4x
chorus     3x
Tap to rate this tab
 
# A B C D E F G H I J K L M N O P Q R S T U V W X Y Z