Song name
# A B C D E F G H I J K L M N O P Q R S T U V W X Y Z

Circle Jerks - American Way tab

-------------------------------------------------------------------------------
			     AMERICAN WAY - Circle Jerks
-------------------------------------------------------------------------------
Tabbed by: Jon Brown
Email: familyguyantiflag@yahoo.com

Tuning: standard


VERSE:

e|---------------------------------------------------------------------------|
B|---------------------------------------------------------------------------|
G|--5-5-5-5-5-5-5-5----------------------------------------------------------|
D|--5-5-5-5-5-5-5-5--6-6-6-6-6-6-6-6--8-8-8-8-8-8-8-8--3-3-3-3-3-3-3-3-------|
A|--3-3-3-3-3-3-3-3--6-6-6-6-6-6-6-6--8-8-8-8-8-8-8-8--3-3-3-3-3-3-3-3-------|
E|-------------------4-4-4-4-4-4-4-4--6-6-6-6-6-6-6-6--1-1-1-1-1-1-1-1-------|

Chorus:

e|---------------------------------------------------------------------------|
B|---------------------------------------------------------------------------|
G|------------------------------------6-6-6-6-6-6-6-6------------------------|
D|--6-6-6-6-6-6-6-6--3-3-3-3-3-3-3-3--6-6-6-6-6-6-6-6--8-8-8-8-8-8-8-8-------|
A|--6-6-6-6-6-6-6-6--3-3-3-3-3-3-3-3--4-4-4-4-4-4-4-4--8-8-8-8-8-8-8-8-------|
E|--4-4-4-4-4-4-4-4--1-1-1-1-1-1-1-1-------------------6-6-6-6-6-6-6-6-------|
    x x x x x x x x  x x x x x x x x  x x x x x x x x                           


| /  slide up
| \  slide down
| h  hammer-on
| p  pull-off
| ~  vibrato
| +  harmonic
| x  Mute note
===============================================================================
Tap to rate this tab
# A B C D E F G H I J K L M N O P Q R S T U V W X Y Z