Song name
# A B C D E F G H I J K L M N O P Q R S T U V W X Y Z

Citizen Fish - Skin tab

Help us improve GuitareTab! Take a short survey!
E-
B-
G-
D-
A-
E-

intro
|----------------------------------------------------------------------|
|-------------------------14-14-12-------------------------------------|
|-11-11-11-11-11-12-11-11----------11--11-12-10-10-11------------12-11-|
|-----------------------------------------------------11-11-12-9-------|
|----------------------------------------------------------------------|
|----------------------------------------------------------------------|

|-------------------------------------------------|
|-------------------------------------------------|
|----11-10-------9---------11-10----------9-10-11-|
|-9--------12-11---12----9-------12-11-12---------|
|---------------------12--------------------------|
|-------------------------------------------------|

verse chords F# F# F F F# F# E E

    End of verse riff            Bridge                         etc     
Repeat *= play (2) 2nd time
|--------------------------|--------------------------------------------|
|--------------------------|--------------------------------------------|
|-12-13-13-13--12-13-13-13-|--------------------------------------------|
|--------------------------|--------------------------------------------|
|--------------------------|-----2-2-----2-2-----2-----2-2-----2---2-5*-|
|--------------------------|-2-4-----2-4-----2-4---2-4-----2-4---4--(2)-|

 chorus
|-----------------------------------------------------------|
|-----------------------------------------------13-15-17-18-|
|-12-12-12-10-10-10--12-12-12-10-10-10-12-14-15-------------|
|-----------------------------------------------------------|
|-----------------------------------------------------------|
|-----------------------------------------------------------|

        Solo
|---------------------------------------------------------------|
|---------------------------------------------------------------|
|-11-11-11-11-11-10---------------------------------------9---9-|
|-------------------12--12-12-12-12-12-11-9--9-9-9-9-9-11---9---|
|---------------------------------------------------------------|
|---------------------------------------------------------------|

|--------------------------------------------------------|
|--------------------------------------------------------|
|-9-9-9-9-9----------------------------------------7---7-|
|-----------12-11--11-11-11-11-11-9-7--7-7-7-7-7-9---7---|
|--------------------------------------------------------|
|--------------------------------------------------------|

|---------------------------------------------------------------|
|---------------------------------------------------------------|
|-11-11-11-11-11-10---------------------------------------9---9-|
|-------------------12--12-12-12-12-12-11-9--9-9-9-9-9-11---9---|
|---------------------------------------------------------------|
|---------------------------------------------------------------|

|----------------------------------------------|
|----------------------------------------------|
|-------9-------9-------9-9-9----------9-7---7-|
|-10-11---10-11---10-11-------7--7-7-7-----7---|
|----------------------------------------------|
|----------------------------------------------|
Related for Skin tab