City And Colour - Weightless tab

Hey guys, this is my first tab so I'm sorry if parts of it are a little unclear.
Also, sorry for not having the solo tabbed out for you, this is the basic idea. Enjoy!


Standard Tuning.


Intro/Verses/Bridge/Outro:
E|------5--------------|    |-----|
B|-5h6--6-----1~-------|    |--3--|
G|-5h7--7-----2~-------| x3 |--4--| Finish the third play through with this chord.
D|-5h7--7-----3~-------|    |--5--|
A|-5----5-----3~-------|    |--5--|
E|---------------------|    |-----|



Chorus:
E|----------------1-----------------0---|
B|-1--1--1--1--1--3--1--1--1--1--1--3---|
G|-2--0--2--2--0--2--2--0--2--2--0--2---|
D|-3--0--2--3--0--0--3--0--2--3--0--0---|
A|-3--2--0--3--2-----3--2--0--3--2------|
E|----3--------3--------3--------3------|



Hope this helped anybody trying to figure this song out!
Tap to rate this tab
 
# A B C D E F G H I J K L M N O P Q R S T U V W X Y Z