Song name
# A B C D E F G H I J K L M N O P Q R S T U V W X Y Z

City And Colour - Like Knives tab

 The Fashion :Like Knives:

E ---------------------------------------------------|
H ----------------9--9--9--9--9----------------------|
G -11-11-11-11-11-9--9--9--9--9----------------------|
D -11-11-11-11-11-9--9--9--9--9----------------------|
A -9--9--9--9--9-------------------------------------|
E ---------------------------------------------------|


E ---------------------------------------------------|
H ---------------------------------------------------|
G -11-11-11-11-11-9--9--9--9--9----------------------|
D -11-11-11-11-11-9--9--9--9--9----------------------|
A -9--9--9--9--9--7--7--7--7--7----------------------|
E ---------------------------------------------------|

_____________________________________________________


E ---------------------------------------------------|
H -9-9-9-9-9-11-11-11-11-11--------------------------|
G -9-9-9-9-9-11-11-11-11-11-9-9-9-9-9-11-11-11-11-11-|
D -7-7-7-7-7-9--9--9--9--9--9-9-9-9-9-11-11-11-11-11-|
A --------------------------7-7-7-7-7-9--9--9--9--9--|
E ---------------------------------------------------|
Tap to rate this tab
# A B C D E F G H I J K L M N O P Q R S T U V W X Y Z