Civet - Bad Luck tab

-------------------------------------------------------------------------------
			     BAD LUCK - Civet
-------------------------------------------------------------------------------
Tabbed by: AlexJohnston
Email: 3200030@live.aucb.ac.uk


First tab in a while but I'm confident on the accuracy. Obviously simple power
chord based track but fast paced. 
I'm guessing you already know Civet if you've
found this tab but if not they're a sick all female punk band from California
who I discovered when they played over here in the UK at Download Festival in
2010. This track is from the record 'Hell Hath No Fury' so go check it out!
They're recording a new album at the moment too so keep an eye out.
This is their Myspace... www.myspace.com/civet



Tuning: Standard                                                                 (times approx.)

e|---------------------------------------------------------------------------|   intro 
B|---------------------------------------------------------------------------|
G|---------------------------------------------------------------------------|
D|---10x8x-------------------------------------------------------------------|
A|---8-x6x10--9-8-6----------------------------------------------------------|
E|--------8---7-6-4----------------------------------------------------------|   (0.00 - 0.02)

e|---------------------------------------------------------------------------|
B|---------------------------------------------------------------------------|
G|---------------------------------------------------------------------------|
D|---------------------------------------------------------------------------|
A|---3-3-333-3-36666--3-3-333-3-36666--3-3-333-3-36666--3-3-333-3-36666------|
E|---1-1-111-1-14444--1-1-111-1-14444--1-1-111-1-14444--1-1-111-1-14444------|   (0.02 - 0.08)

e|---------------------------------------------------------------------------|
B|---------------------------------------------------------------------------|
G|---------------------------------------------------------------------------|
D|---3-333333--3-333333--3-333333--3-333333----------------------------------|
A|---1-111111--1-111111--1-111111--1-111111----------------------------------|
E|---------------------------------------------------------------------------|   (0.08 - 0.12)

e|---------------------------------------------------------------------------|
B|---------------------------------------------------------------------------|
G|---------------------------------------------------------------------------|
D|-------------------------------------10x8x---------------------------------|
A|---3-3-333-3-36666--3-3-333-3-36666--8-x6x10--9-8-6------------------------|
E|---1-1-111-1-14444--1-1-111-1-14444-------8---7-6-4------------------------|   (0.12 - 0.17)

e|---------------------------------------------------------------------------|
B|---------------------------------------------------------------------------|
G|---------------------------------------------------------------------------|
D|---------------------------------------------------------------------------|
A|---3-3-333-3-36666--3-3-333-3-36666----------------------------------------|
E|---1-1-111-1-14444--1-1-111-1-14444----------------------------------------|   (0.17 - 0.20)

e|---------------------------------------------------------------------------|
B|---------------------------------------------------------------------------|
G|---------------------------------------------------------------------------|
D|---------------------------------------------------------------------------|
A|---3-3-333-3-36666--3-3-333-3-36666--3-3-333-3-36666--3-3-333-3-36666------|
E|---1-1-111-1-14444--1-1-111-1-14444--1-1-111-1-14444--1-1-111-1-14444------|   (0.21 - 0.27) 

e|---------------------------------------------------------------------------|
B|---------------------------------------------------------------------------|
G|---------------------------------------------------------------------------|
D|---3-333333--3-333333--3-333333--3-333333----------------------------------|
A|---1-111111--1-111111--1-111111--1-111111----------------------------------|
E|---------------------------------------------------------------------------|   (0.27 - 0.30)

e|---------------------------------------------------------------------------|
B|---------------------------------------------------------------------------|
G|---------------------------------------------------------------------------|
D|-------------------------------------66666666-88888888---------------------|
A|---3-3-333-3-36666--3-3-333-3-36666--44444444-66666666---------------------|
E|---1-1-111-1-14444--1-1-111-1-14444----------------------------------------|   (0.30 - 0.38)

e|---------------------------------------------------------------------------|
B|---------------------------------------------------------------------------|
G|---------------------------------------------------------------------------|
D|----------6x3-333----------6x3-333----------6x3-333----------6x3-333-------|
A|--3-3-6-6-4x1-111--3-3-6-6-4x1-111--3-3-6-6-4x1-111--3-3-6-6-4x1-111-------|
E|--1-1-4-4----------1-1-4-4----------1-1-4-4----------1-1-4-4---------------|   (0.38 - 0.44)

e|---------------------------------------------------------------------------|   
B|---------------------------------------------------------------------------|
G|---------------------------------------------------------------------------|
D|---10x8x-------------------------------------------------------------------|
A|---8-x6x10--9-8-6----------------------------------------------------------|
E|--------8---7-6-4----------------------------------------------------------|   (0.44 - 0.46)

e|---------------------------------------------------------------------------|
B|---------------------------------------------------------------------------|
G|---------------------------------------------------------------------------|
D|---------------------------------------------------------------------------|
A|---3-3-333-3-36666--3-3-333-3-36666--3-3-333-3-36666--3-3-333-3-36666------|
E|---1-1-111-1-14444--1-1-111-1-14444--1-1-111-1-14444--1-1-111-1-14444------|   (0.46 - 0.53)

e|---------------------------------------------------------------------------|
B|---------------------------------------------------------------------------|
G|---------------------------------------------------------------------------|
D|---66666666-88888888-------------------------------------------------------|
A|---44444444-66666666-------------------------------------------------------|
E|---------------------------------------------------------------------------|   (0.53 - 0.56)

e|---------------------------------------------------------------------------|
B|---------------------------------------------------------------------------|
G|---------------------------------------------------------------------------|
D|----------6x3-333----------6x3-333----------6x3-333----------6x3-333-------|
A|--3-3-6-6-4x1-111--3-3-6-6-4x1-111--3-3-6-6-4x1-111--3-3-6-6-4x1-111-------|
E|--1-1-4-4----------1-1-4-4----------1-1-4-4----------1-1-4-4---------------|   (0.57 - 1.03)

e|---------------------------------------------------------------------------|   
B|---------------------------------------------------------------------------|
G|---------------------------------------------------------------------------|
D|---10x8x-------------------------------------------------------------------|
A|---8-x6x10--9-8-6----------------------------------------------------------|
E|--------8---7-6-4----------------------------------------------------------|   (1.03 - 1.05)

e|---------------------------------------------------------------------------|
B|---------------------------------------------------------------------------|
G|---------------------------------------------------------------------------|
D|---------------------------------------------------------------------------|
A|---3-3-333-3-36666--3-3-333-3-36666--3-3-333-3-36666--3-3-333-3-36666------|
E|---1-1-111-1-14444--1-1-111-1-14444--1-1-111-1-14444--1-1-111-1-14444------|   (1.05 - 1.11)

e|---------------------------------------------------------------------------|
B|---------------------------------------------------------------------------|
G|---------------------------------------------------------------------------|
D|---3-333333--3-333333--3-333333--3-333333----------------------------------|
A|---1-111111--1-111111--1-111111--1-111111----------------------------------|
E|---------------------------------------------------------------------------|   (1.11 - 1.15)

e|---------------------------------------------------------------------------|
B|---------------------------------------------------------------------------|
G|---------------------------------------------------------------------------|
D|---------------------------------------------------------------------------|
A|---3-3-333-3-36666--3-3-333-3-36666----------------------------------------|
E|---1-1-111-1-14444--1-1-111-1-14444----------------------------------------|   (1.15 - 1.18)

e|--------------------|    
B|--------------------|
G|--------------------|
D|---10x8x------------|
A|---8-x6x10--9-8-6---|
E|--------8---7-6-4---|   (x3) 

e|--------------------|    
B|--------------------|
G|--------------------|
D|--------------------|
A|---3---6-3----------|
E|---1---4-1----------|   (1.27)




************************************

| /   slide up
| \   slide down
| h   hammer-on
| p   pull-off
| ~   vibrato
| +   harmonic
| x   Mute note
| b   Bend
| pb  Pre-bend
| br  Bend release
| pbr Pre-bend release
| brb Bend release bend

************************************
Tap to rate this tab
 
# A B C D E F G H I J K L M N O P Q R S T U V W X Y Z