Song name
# A B C D E F G H I J K L M N O P Q R S T U V W X Y Z

Civet - Son Of A Bitch tab

Artist: Civet.
Title: Son of a bitch.
Tuning: Standard.

Riff 1.
|------------------------------------------------------------|
|------------------------------------------------------------|
|--------------------11-11-9-11-11-9-11-11-9-11-11-9-11-11-9-|
|--------------------11-11-9-11-11-9-11-11-9-11-11-9-11-11-9-|
|--------9---9--9-9---9--9-7--9--9-7--9--9-7--9--9-7--9--9-7-|
|-7--7-9------------9----------------------------------------|

Riff 2.
|---------------------|
|---------------------|
|-----------------9-9-|
|-7--7---9-9-9-9--9-9-|
|-7--7---9-9-9-7--7-7-|
|-5--5---7-7-7--------|

Riff 3.
|---------------------------|
|---------------------------|
|-9-9-9-9-9-9-9-9-9-9-9-9-9-|
|-9-9-9-9-9-9-9-9-9-9-9-9-9-|
|-7-7-7-7-7-7-7-7-7-7-7-7-7-|
|---------------------------|

Riff 4.
|---------------------------------|
|---------------------------------|
|-11-11-9-11-11-9-11-11-9-11-11-9-|
|-11-11-9-11-11-9-11-11-9-11-11-9-|
|--9--9-7--9--9-7--9--9-7--9--9-7-|
|---------------------------------|

Riff 5.
|---------------------------------|
|---------------------------------|
|---------------------------------|
|-11-11-9-11-11-9-11-11-9-11-11-9-|
|-11-11-9-11-11-9-11-11-9-11-11-9-|
|--9--9-7--9--9-7--9--9-7--9--9-7-|

Riff 6.
|---------------------------|
|---------------------------|
|---------------------------|
|-9-9-9-9-9-9-9-9-9-9-9-9-9-|
|-9-9-9-9-9-9-9-9-9-9-9-9-9-|
|-7-7-7-7-7-7-7-7-7-7-7-7-7-|
Tap to rate this tab
# A B C D E F G H I J K L M N O P Q R S T U V W X Y Z