Song name
# A B C D E F G H I J K L M N O P Q R S T U V W X Y Z

Cky - Eye Of The Tiger tab

Help us improve GuitareTab! Take a short survey!
Camp Kill Yourself - Eye Of The Tiger

tuning; e a d g b e

Intro
e|------------------------------------------------------------------|
b|------------------------------------------------------------------|
g|------------------------------------------------------------------|
d|--9-------9-7-9-------9-7-9--------9---7---5----------------------|
a|--9-------9-7-9-------9-7-9--------9---7---5----------------------|
e|--7-------7-5-7-------7-5-7--------7---5---3----------------------|

e|------------------------------------------------------------------|
b|------------------------------------------------------------------|
g|------------------------------------------------------------------|
d|--9-------9-7-9-------9-7-9--------9---7---5----------------------|
a|--9-------9-7-9-------9-7-9--------9---7---5----------------------|
e|--7-------7-5-7-------7-5-7--------7---5---3----------------------|

Verse
e|------------------------------------------------------------------|
b|------------------------------------------------------------------|
g|------------------------------------------------------------------|
d|-99999999---55555555---77777777-----------------------------------|
a|-99999999---55555555---77777777-----------------------------------|
e|-77777777---33333333---55555555-----------------------------------|

e|------------------------------------------------------------------|
b|------------------------------------------------------------------|
g|------------------------------------------------------------------|
d|-99999999---55555555---77777777-----------------------------------|
a|-99999999---55555555---77777777-----------------------------------|
e|-77777777---33333333---55555555-----------------------------------|

Chorus
e|------------------------------------------------------------------|
b|------------------------------------------------------------------|
g|------------------------------------------------------------------|
d|-99999999---55555555---77777777-----------------------------------|
a|-99999999---55555555---77777777-----------------------------------|
e|-77777777---33333333---55555555-----------------------------------|

Outro
e|------------------------------------------------------------------|
b|------------------------------------------------------------------|
g|------------------------------------------------------------------|
d|--9-------9-7-9-------9-7-9--------9---7---5----------------------|
a|--9-------9-7-9-------9-7-9--------9---7---5----------------------|
e|--7-------7-5-7-------7-5-7--------7---5---3----------------------|

Do All That 3 Times 

Tab By Jenny Himself
sweet--revenge--@hotmail.com -> CKY Fans Add Me!!
Related for Eye Of The Tiger tab