Song name
# A B C D E F G H I J K L M N O P Q R S T U V W X Y Z

Clannad - Dango Daikazoku tab

Tuning is Standard EADGBE
Preferably played on an acoustic, but a clean electric is fine.
This is the whole main guitar's portion. I learned this from the 1:30 second version, 
BUT the 4:30 version is the exact same riffs just longer, so use your ears and figure out 
what to play if you want to play along with the 4:30 one.
It's very simple.
Let everything ring unless you are playing the same string which (obviously) mutes the 
last note.

Every note is pretty much a syllable in the vocalists words. So just
follow along in your head and it's easy.

Follow the tab below to the words above it.




-da-n-go-dan-go-dan-go-dan-go------da-n-go-dai-ka-zo-ku


------4---4---6--6---8---4---------------4--4---6--6--4-------------|
--6-4-----------------------4-------6-4-----------------------------|
--------------------------------------------------------------------|
--------------------------------------------------------------------|
--------------------------------------------------------------------|
--------------------------------------------------------------------|

------4--4---6--6--8--4---------------4--4---6-6--8--6--------------|
--6-4--------------------4-------6-4--------------------------------|
--------------------------------------------------------------------|
--------------------------------------------------------------------|
--------------------------------------------------------------------|
--------------------------------------------------------------------|

------4--4---6--6--8--4---------------4--4---6-4--------------------|
--6-4--------------------4-------6-4--------------------4-----------|
--------------------------------------------------------------------|
--------------------------------------------------------------------|
--------------------------------------------------------------------|
--------------------------------------------------------------------|

--9--8--4-------4--6-----4---------------4--------------------------|
-----------6----------6------------4--6-----------------------------|
--------------------------------------------------------------------|
--------------------------------------------------------------------|
--------------------------------------------------------------------|
--------------------------------------------------------------------|

--9--8--4-------4--6-----4------------------------------------------|
-----------6----------6---------------------------------------------|
--------------------------------------------------------------------|
--------------------------------------------------------------------|
--------------------------------------------------------------------|
--------------------------------------------------------------------|


--9--8--4-------4--6-----4-----------4------4-----------------------|
-----------6----------6--------4--6-----4-----2------2-4-2-4-2------|
--------------------------------------------------------------------|
--------------------------------------------------------------------|
--------------------------------------------------------------------|
--------------------------------------------------------------------|

--------4-6--6-4----------6---11-8-6--------------------------------|
-2-4-6----------------6-4-------------------------------------------|
--------------------------------------------------------------------|
--------------------------------------------------------------------|
--------------------------------------------------------------------|
--------------------------------------------------------------------|


--4----4-6-6---6-4-----4--11-8--------------------------------------|
-----6---------------6----------------------------------------------|
--------------------------------------------------------------------|
--------------------------------------------------------------------|
--------------------------------------------------------------------|
--------------------------------------------------------------------|

// = Slide
Do not slide unitl the very moment right before the 1 on high E. You don't have to do it,
it just gives a more put together and fluent sound.

--------4-6--6-4----------6---11-8-6----4-3---------1-3--4-3---4----|
-2-4-6----------------6-4-------------------6-//3-------------------|
--------------------------------------------------------------------|
--------------------------------------------------------------------|
--------------------------------------------------------------------|
--------------------------------------------------------------------|


--------4-6--6-4----------6---11-8-6--------------------------------|
-2-4-6----------------6-4-------------------------------------------|
--------------------------------------------------------------------|
--------------------------------------------------------------------|
--------------------------------------------------------------------|
--------------------------------------------------------------------|


--4----4-6-6---6-4-----4--11-8--------------------------------------|
-----6---------------6----------------------------------------------|
--------------------------------------------------------------------|
--------------------------------------------------------------------|
--------------------------------------------------------------------|
--------------------------------------------------------------------|

This last time, the 4 is played later than the first time (Notice the spacing I put)

--------4-6--6-4----------6---11-8-6----4-3---------1-3--4-3------4-|
-2-4-6----------------6-4-------------------6-//3-------------------|
--------------------------------------------------------------------|
--------------------------------------------------------------------|
--------------------------------------------------------------------|
--------------------------------------------------------------------|


Well that's the whole song. Hope you enjoyed, Clannad fans.
Tap to rate this tab
# A B C D E F G H I J K L M N O P Q R S T U V W X Y Z