Song name
# A B C D E F G H I J K L M N O P Q R S T U V W X Y Z

Clannad - Dango Daikazoku tab

e|-----10-10-12-12-14-10--------10-10-12-12-14-10---|
B|12-10-----------------10-12-10--------------------|
G|--------------------------------------------------|
D|--------------------------------------------------|
A|--------------------------------------------------|
E|--------------------------------------------------|

e|-----10-10-12-12-14-10--------10-10-12-10---------|
B|12-10-----------------10-12-10--------------------|
G|--------------------------------------------------|
D|--------------------------------------------------|
A|--------------------------------------------------|
E|--------------------------------------------------|

e|-----10-10-12-12-14-10--------10-10-12-12-14-12---|
B|12-10-----------------10-12-10--------------------|
G|--------------------------------------------------|
D|--------------------------------------------------|
A|--------------------------------------------------|
E|--------------------------------------------------|

e|-----10-10-12-12-14-10--------10-10-12-10---------|
B|12-10-----------------10-12-10-----------10-------|
G|--------------------------------------------------|
D|--------------------------------------------------|
A|--------------------------------------------------|
E|--------------------------------------------------|

e|15-14-10--10-12--10-----10-15-14-10--10-12--10----|
B|--------12-----12--10-12-----------12-----12------|
G|--------------------------------------------------|
D|--------------------------------------------------|
A|--------------------------------------------------|
E|--------------------------------------------------|

e|15-14-10--10-12--10-----10--10--------------------|
B|--------12-----12--10-12--10--8-8-10-8-10-8-------|
G|--------------------------------------------------|
D|--------------------------------------------------|
A|--------------------------------------------------|
E|--------------------------------------------------|

e|-------10-12-12-10--10-12-14-17-12-12h14----------|
B|8/10-12-----------12------------------------------|
G|--------------------------------------------------|
D|--------------------------------------------------|
A|--------------------------------------------------|
E|--------------------------------------------------|

e|10--10-12-12-10--12-10-17-10/12-------------------|
B|--12-----------12---------------------------------|
G|--------------------------------------------------|
D|--------------------------------------------------|
A|--------------------------------------------------|
E|--------------------------------------------------|

e|-------10-12-12-10--10-12-14-17-12-12/14----------|
B|8/10-12-----------12------------------------------|
G|--------------------------------------------------|
D|--------------------------------------------------|
A|--------------------------------------------------|
E|--------------------------------------------------|

e|10-9--7/9-10-9-10---------------------------------|
B|----12--------------------------------------------|
G|--------------------------------------------------|
D|--------------------------------------------------|
A|--------------------------------------------------|
E|--------------------------------------------------|
Tap to rate this tab
 
# A B C D E F G H I J K L M N O P Q R S T U V W X Y Z