Guitaretab - guitar tabs
Song name
# A B C D E F G H I J K L M N O P Q R S T U V W X Y Z

Clutch - Animal Farm tab

#----------------------------------PLEASE NOTE---------------------------------#
#This file is the author's own work and represents their interpretation of the #
#song. You may only use this file for private study, scholarship, or research. #
From: (Burning Inside)
Date: 25 Dec 95 01:12:35 -0500
Subject: Corrected TAB:"Animal Farm" by Clutch

Please put this tab in place of the other "Animal Farm" tab. There were a few
corrections that needed to be made.

"Animal Farm"           by Clutch
                        from the album "Clutch"
                        words and music by Tim Sult, Dan Maines,
                                Neil Fallon and Jean-Paul Gaster
                        tabbed by Tom Mallon

Riff 1/Intro
E ----------------------------------------------|
B ----------------------------------------------|
G -----5-----5-----5-----5----------------------|
D --2--5--2--5--2--5--2--5--2-------------------|
A --2--3--2--3--2--3--2--3--2-------------------|
E --0-----0-----0-----0-----0-------------------|
[ Tab from: ]
Riff 2/Verse
E ------------------------------|
B ------------------------------|
G ------------------------------|
D ------------------------3-2---|
A ------------------------3-2---|
E --0--0-0-5p0-0-0-3p0-00-1-0---|

E --------------------------|
B --------------------------|
G --------------------------|
D --------------------5-/-6-|
A --------------------5-/-6-|
E -0-0-5p0-0-0-3p0-00-3-/-4-|

Riff 3/Verse Turnaround
E ----------------------------------------------|
B ----------------------------------------------|
G ----------------------------------------------|
D ----------------------------------------------|
A ----------------------------------------------|
E ---5-4-3-6-5-4-7-6-5-8^-----------------------|

Riff 4/Bridge/Outro
E ----------------------------------------------|
B ----------------------------------------------|
G ---5--------------------3---------------------|
D ---5--2-----5-----4--2--3--2--5-----5---------|
A ---3--2-----5-----4--2--1--2--5-----5---------|
E -0----0--0--3-x-x-2--0-----0--3--0--3---------|

Riff 5 (after Bridge, plays this and then returns to Bridge for Outro)
E ----------------------------------------------|
B ----------------------------------------------|
G -----5----------------------------------------|
D --2--5--2---5-----5---------------------------|
A --2--3--2---5-----5---------------------------|
E --0-----0---3--0--3---------------------------|
Related for Animal Farm tab