Song name
# A B C D E F G H I J K L M N O P Q R S T U V W X Y Z

Clutch - The Face tab

-------------------------------------------------------------------------------
                             The Face - Clutch
-------------------------------------------------------------------------------
Tabbed by: William Breedlove
E-mail:

Tuning: STANDARD


Just listen to the song for the strums and holds. The timing is very simple.

  
e|---------------------------------------------------------------------------|
B|---------------------------------------------------------------------------|
G|---------------------------------------------------------------------------|
D|9\12--7--5--4--9-----------------------------------------------------------|
A|7\10--5--3--2--7-----------------------------------------------------------|
E|---------------------------------------------------------------------------|


e|---------------------------------------------------------------------------|
B|---------------------------------------------------------------------------|
G|---------------------------------------------------------------------------|
D|9\12--7--5--4--9-----------------------------------------------------------|
A|7\10--5--3--2--7-----------------------------------------------------------|
E|---------------------------------------------------------------------------|



They arrive, on a sunny day......

e|---------------------------------------------------------------------------|
B|---------------------------------------------------------------------------|
G|---------------------------------------------------------------------------|
D|---------------------------------------------------------------------------|
A|---------------------------------------------------------------------------|
E|3b-br-00-------------------------------------------------------------------|


e|---------------------------------------------------------------------------|
B|---------------------------------------------------------------------------|
G|---------------------------------------------------------------------------|
D|---------------------------------------------------------------------------|
A|---------------------------------------------------------------------------|
E|3b-br-00-------------------------------------------------------------------|



One-Thousand Les Pauls....

e|---------------------------------------------------------------------------|
B|---------------------------------------------------------------------------|
G|---------------------------------------------------------------------------|
D|9\12--7--5--4--9-----------------------------------------------------------|
A|7\10--5--3--2--7-----------------------------------------------------------|
E|---------------------------------------------------------------------------|


e|---------------------------------------------------------------------------|
B|---------------------------------------------------------------------------|
G|---------------------------------------------------------------------------|
D|9\12--7--5--4--9-----------------------------------------------------------|
A|7\10--5--3--2--7-----------------------------------------------------------|
E|---------------------------------------------------------------------------|



One-Thousand jazz masters......

e|---------------------------------------------------------------------------|
B|---------------------------------------------------------------------------|
G|---------------------------------------------------------------------------|
D|9\12--7--5--4--9-----------------------------------------------------------|
A|7\10--5--3--2--7-----------------------------------------------------------|
E|---------------------------------------------------------------------------|


e|---------------------------------------------------------------------------|
B|---------------------------------------------------------------------------|
G|---------------------------------------------------------------------------|
D|9\12--7--5--4--9-----------------------------------------------------------|
A|7\10--5--3--2--7-----------------------------------------------------------|
E|---------------------------------------------------------------------------|\



In the beginning, there was void.......

e|---------------------------------------------------------------------------|
B|---------------------------------------------------------------------------|
G|---------------------------------------------------------------------------|
D|---------------------------------------------------------------------------|
A|---------------------------------------------------------------------------|
E|3b-br-0-0000--3b-br-0-0000--3b-br-0-0000--44p3p0---------------------------|
          xxxx          xxxx          xxxx



e|---------------------------------------------------------------------------|
B|---------------------------------------------------------------------------|
G|---------------------------------------------------------------------------|
D|---------------------------------------------------------------------------|
A|---------------------------------------------------------------------------|
E|3b-br-0-0000--3b-br-0-0000--3b-br-0-0000--44p3p0---------------------------|
          xxxx          xxxx          xxxx



One-Thousand Les Pauls......

e|---------------------------------------------------------------------------|
B|---------------------------------------------------------------------------|
G|---------------------------------------------------------------------------|
D|9\12--7--5--4--9-----------------------------------------------------------|
A|7\10--5--3--2--7-----------------------------------------------------------|
E|---------------------------------------------------------------------------|


e|---------------------------------------------------------------------------|
B|---------------------------------------------------------------------------|
G|---------------------------------------------------------------------------|
D|9\12--7--5--4--9-----------------------------------------------------------|
A|7\10--5--3--2--7-----------------------------------------------------------|
E|---------------------------------------------------------------------------|



One-Thousand jazz masters......

e|---------------------------------------------------------------------------|
B|---------------------------------------------------------------------------|
G|---------------------------------------------------------------------------|
D|9\12--7--5--4--9-----------------------------------------------------------|
A|7\10--5--3--2--7-----------------------------------------------------------|
E|---------------------------------------------------------------------------|

e|---------------------------------------------------------------------------|
B|---------------------------------------------------------------------------|
G|---------------------------------------------------------------------------|
D|9\12--7--5--4--9-----------------------------------------------------------|
A|7\10--5--3--2--7-----------------------------------------------------------|
E|---------------------------------------------------------------------------|



One-Thousand Les Pauls......

e|---------------------------------------------------------------------------|
B|---------------------------------------------------------------------------|
G|---------------------------------------------------------------------------|
D|9\12--7--5--4--9-----------------------------------------------------------|
A|7\10--5--3--2--7-----------------------------------------------------------|
E|---------------------------------------------------------------------------|


e|---------------------------------------------------------------------------|
B|---------------------------------------------------------------------------|
G|---------------------------------------------------------------------------|
D|9\12--7--5--4--9-----------------------------------------------------------|
A|7\10--5--3--2--7-----------------------------------------------------------|
E|---------------------------------------------------------------------------|



One-Thousand jazz masters......

e|---------------------------------------------------------------------------|
B|---------------------------------------------------------------------------|
G|---------------------------------------------------------------------------|
D|9\12--7--5--4--9-----------------------------------------------------------|
A|7\10--5--3--2--7-----------------------------------------------------------|
E|---------------------------------------------------------------------------|

e|---------------------------------------------------------------------------|
B|---------------------------------------------------------------------------|
G|---------------------------------------------------------------------------|
D|9\12--7--5--4--9-----------------------------------------------------------|
A|7\10--5--3--2--7-----------------------------------------------------------|
E|---------------------------------------------------------------------------|



************************************

| /   slide up
| \   slide down
| h   hammer-on
| p   pull-off
| ~   vibrato
| +   harmonic
| x   Mute note
| b   Bend
| pb  Pre-bend
| br  Bend release
| pbr Pre-bend release
| brb Bend release bend

************************************
Tap to rate this tab
 
# A B C D E F G H I J K L M N O P Q R S T U V W X Y Z