Guitaretab - guitar tabs
Song name
# A B C D E F G H I J K L M N O P Q R S T U V W X Y Z

Clutch - The House That Peterbilt tab

#----------------------------------PLEASE NOTE---------------------------------#
#This file is the author's own work and represents their interpretation of the #
#song. You may only use this file for private study, scholarship, or research. #
From: (Burning Inside)
Date: 16 Jan 96 16:42:38 -0500
Subject: TAB: "The House that Peterbilt" by Clutch


The House that Peterbilt        by Clutch
                                from the album "Clutch"
                                words and music by Tim Sult, Dan Maines,
                                        Neil Fallon and Jean-Paul Gaster
                                tabbed by Tom Mallon

E |------------------------------------------------------------------------|
B |------------------------------------------------------------------------|
G |------------------------------------------------------------------------|
D |-5/7-7-7-7--7-7--7-7--7-7-7---3/5-5-5-5--5-5--5-5--5-5--4-4-4-4-4-4-4-4-|
A |-5/7-7-7-7--7-7--7-7--7-7-7---3/5-5-5-5--5-5--5-5--5-5--4-4-4-4-4-4-4-4-|
E |-3/5-5-5-5--5-5--5-5--5-5-5---1/3-3-3-3--3-3--3-3--3-3--2-2-2-2-2-2-2-2-|
[ Tab from: ]
Verse Riff (This has two different endings which alternate. They are
            separated by the brackets.)
E |---------------------------------------------|
B |---------------------------------------------|
G |---------------------------------------------|
D |---------------------------------------------|
A |----------1----------------1-----------1-----|
E |--1---3------3-----1---3------3----1-3---3---|
                     Ending 1                  Ending 2
E ------------------|-------------------------|-------------------------|
B ------------------|-------------------------|-------------------------|
G ------------------|-------------------------|-------------------------|
D ------------------|-------------------------|-------------------------|
A -----------1------|------------3-1---1------|-1-----1-----1-----1-----|
E ---1---3------3---|--1--3--1-------3---3-2--|----3-----3-----3----3-2-|

   Main Part                     Turnaround
E |----------------------------|----------------------------------|
B |----------------------------|----------------------------------|
G |----------------------------|----------------------------------|
D |-------------------------8--|--8--7--6-------------------------|
A |-------------------------8--|--8--7--6-------------------------|
E |--1/3-3-3-3--1/3-3-3-3---6--|--6--5--4-------------------------|
The main part repeats a few times (three, I think) and then uses the

One last thing, those notes in the main bridge part should actually be F5 and
G5 power chords, not single notes. Sorry about that.
 | Fidonet:  Burning Inside 1:273/929
 | Internet:
 |  Standard disclaimer: The views of this user are strictly his own.
 |  -=-=> (This address will be INVALID after March 1, 1996) <=-=-
Related for The House That Peterbilt tab