Guitaretab - guitar tabs
Song name
# A B C D E F G H I J K L M N O P Q R S T U V W X Y Z

Clutch - Cypress Grove tab

-----------------------------------------------------------------------------
			     Clutch - Cypress Grove
-----------------------------------------------------------------------------
Tabbed by: Tyler Eibl -- AIM - Xmp311X
Email: xmp311x@hotmail.com 

Tuning: Standard


Intro/Verse:

e|-------------------------------------------------------------|
B|-------------------------------------------------------------|
G|-------------------------------------------------------------|
D|-------------------------------------------------------------|
A|-1h-3-1--------1h-3-1--------1h-3-1---1^----1h-3-1-----1-----|
E|--------3-3-3---------3-3-3---------3---3----------3-3-------|

Pre-Chorus:

e|--------------------------------------------|
B|--------------------------------------------|
G|--------------------------------------------|
D|--------------------------------------------|
A|-------1-------1-1-1---------1------1-1-----|
E|--1h-3----1h-3-------3--1h-3---1h-3-----3---|
 
Chorus:
[ Tab from: http://www.guitaretab.com/c/clutch/48745.html ]
e|-------------------------------------------------------------------------|
B|-------------------------------------------------------------------------|
G|-------------------------------------------------------------------------|
D|-------------------------------------------------------------------------|
A|--3--1-----1--------------1-----1-----1--3--3--1-----1-------------------|
E|--------3-----3--1--3--3-----3-----3--------------3-----3--1-------------|

Bridge:

e|------------------------------------------------------------------
B|------------------------------------------------------------------
G|------------------------------------------------------------------
D|------------------------------------------------------------------
A|--------------1--------------------3-1-----------------1----------
E|--3--1-3-1-3----3-1---3--1-3-1-3-------3---3--1-3-1-3----3-1------

e|------------------------|
B|------------------------|
G|------------------------|
D|------------------------|
A|--------------3--1------|
E|--3--1-3-1-3-------5-3--|

Thats it. the order is pretty basic and you'll pick it up the first time you play it. 

| /  slide up
| \  slide down
| h  hammer-on
| p  pull-off
| ~  vibrato
| +  harmonic
| x  Mute note
=============================================================================
Related for Cypress Grove tab
Advertisement will be closed in 10 seconds