Song name
# A B C D E F G H I J K L M N O P Q R S T U V W X Y Z

Clutch - Ghost tab

Help us improve GuitareTab! Take a short survey!
-------------------------------------------------------------------------------
			     Ghost - Clutch
-------------------------------------------------------------------------------
Tabbed by:Brandon
Email:atchison89@comcast.net

Tuning:standard

capo on fourth fret

pull these numbers from capo i.e. start with Am. and use variations.

    Am                                      G
e|------------------------------------------3-3-3-3-3-3-3-3-3-3--------------|
B|--1-1-1-0-1-3-1-0-h-1-1-1-1-1-1-0-1-3-1-0-3-3-3-3-3-3-3-3-3-3--------------|
G|--2-2-2-2-2-2-2-2---2-2-2-2-2-2-2-2-2-2-2-0-0-0-0-0-0-0-0-0-0--------------|
D|--2-2-2-2-2-2-2-2---2-2-2-2-2-2-2-2-2-2-2-0-0-0-0-0-0-0-0-0-0--------------|
A|------------------------------------------2-2-2-2-2-2-2-2-2-2--------------|
E|------------------------------------------3-3-3-3-3-3-3-3-3-3--------------|
    F
e|--1-1-1-3-1-0-h-1-1-1-1----------------------------------------------------|
B|--1-1-1-1-1-0-h-1-1-1-1----------------------------------------------------|
G|--2-2-2-2-2-2---2-2-2-2----------------------------------------------------|
D|--3-3-3-3-3-3---3-3-3-3----------------------------------------------------|
A|---------------------------------------------------------------------------|
E|---------------------------------------------------------------------------|




ill finish it later.
Related for Ghost tab